rock
 
|tablatures   |lyrics   |discussion forums   |more tabs @ XGuitar.com

Black Sabbath tabs

Air Dance guitar tab

Air Dance
Black Sabbath - Never Say Die (1978)


|----------------------------------------------------------|
|-10/13-13----------13-13--10-10---10/13-13--------13--10--|
|-----------10--12---------------------------10-12---------|
|----------------------------------------------------------|
|----------------------------------------------------------|
|----------------------------------------------------------|
|                                                          |
|----------------------------------------------------------|
|----------------------------------------------------------|
|------------------5--5--------------------------5---------|
|--7/10-10--3---5--5--5--7--7----7/10-10--3--5---5--7------|
|--7/10-10--3---5--3--3--7--7----7/10-10--3--5---3--7------|
|--5/-8--8--1---3--------5--5----5/-8--8--1--3------5------|

|-------------0-----------------0-----------
|-----3---(6)---6-------3---(6)---6---------
|---2---2/-5------5---2---2/-5------5-------
|-0-----------------0-----------------------
|-------------------------------------------
|-------------------------------------------

|----------------------------------------------------
|----------------------12------------------------12--
|-13\12-10--13\12-10---12---13\12-10--13\12-10---12--
|-13\12-10--13\12-10--(12)--13\12-10--13\12-10--(12)-
|----------------------------------------------------
|----------------------------------------------------
1st time:
|-10----------10------------10-----------------------------
|---13-10-13^---13-10----10----13^-10----------------------
|---------------------12--------------12^--10-12-----------
|----------------------------------------------------------
|----------------------------------------------------------
|----------------------------------------------------------

|------------------------------------
|------------------------------------
|-10\9--------9-10-12-10-12-12/14----
|----------12------------------------
|------------------------------------
|------------------------------------
2nd time:
|-10--------10---------------------------------------------
|----13-13-------------------------------------------------
|--------------12-12--10-12^-12----12-10---10--------------
|----------------------------------------12---12-10-9------
|----------------------------------------------------------
|----------------------------------------------------------
"away......away..."
|-15--------------------------------------------
|----------------------------15--16-------------
|-12--14--16-------------------------14-/-16----
|----------------------------12--13-------------
|-----12--14-------------------------12-/-14----
|-----------------------------------------------

|-------------------------------------------------
|-------------------------------------------------
|-14-12-(11)-12--11h12p11---11-12-11-12-14--------
|------------------------------------------12-14--
|-------------------------------------------------
|-------------------------------------------------

|---------------------------------------------
|---------------------------------------------
|----11-12p11---------11-12p11-12-14----------
|-------------------------------------12--14--
|-14---------------14-------------------------
|---------------------------------------------

|---------------------------------------------------------------------
|---------------------------------------------------------------------
|-14/16-16-16----------16-16-16----------14-14-14-------11-12-11------
|-------------14-14-14----------14-14-14----------12-12----------14---
|---------------------------------------------------------------------
|---------------------------------------------------------------------

|--------------------------------------------------------------------
|--------------------------------------------------------------------
|-14/16-16-16----------16-16-16----------14-14-14-------11-12-11-----
|-------------14-14-14----------14-14-14----------12-12----------14--
|--------------------------------------------------------------------
|--------------------------------------------------------------------

|-----------------------------------------------------------------
|-----------------------------------------------------------------
|-------------------------------------12-10-9----9-10-12-12/14-12-
|-12-10-9-----9-10-12--10-9-----10-12---------12------------------
|---------12----------------12------------------------------------
|-----------------------------------------------------------------

|--------------------
|-------12-----------
|-12h13----12h13-----
|----------------14--
|--------------------
|--------------------

|----------------------------------------------------------
|----------------------------------------------------------
|-------------5--7-----7^7--5--------------5--7--5h7p5-----
|--7--7--7----5--7-----7^7--5---7--7--7----5--7--5h7p5-----
|--7--7--7----------------------7--7--7--------------------
|----------------------------------------------------------

Keyboard: arr. for guitar:
|-------------------------------------------------------------
|---------------6-----5-----6-----------------6-----5-----6---
|---7-----5-------5-----5-----5---7-----5-------5-----5-----5-
|-----7-----7-----------------------7-----7-------------------
|-5-----5-----5-----5-----5-----5-----5-----5-----5-----5-----
|-------------------------------------------------------------

  development and support by
dmitry ivanov