rock
 
|tablatures   |lyrics   |discussion forums   |more tabs @ XGuitar.com

Black Sabbath tabs

After All (The Dead) guitar tab

After All (The Dead)
Black Sabbath - Dehumanizer


|-------------------------------------------------------------------
|-------------------------------------------------------------------
|-------------------------------------------------------------------
|-------------------------------------------------------------------
|---2-1---3---2-----2-1---/5-4-3-2---2-1---3---2---3-2-1------------
|-0-----0---------0-----0----------0-----0---------------2---3---0--


what do you..
|-----------------------------------------------------------
|-----------------------------------------------------------
|-9-----------------------5-----9----------------------5----
|-9-----------5--4--3-----5-----9----------5--4--3-----5----
|-7-----------5--4--3-----3-----7----------5--4--3-----3----
|-0-----------3--2--1-----------0----------3--2--1----------



|-------------------------------------------------------
|-------------------------------------------------------
|-9-------------------------9-------------7/8-----------
|-9-------------------------9--------8\7--5/6-----------
|-7------6h7p6h7p6h7p6h7----7--------6\5----------------
|-0-------------------------0---------------------------



|-------------------------------------------------------------------
|-------------------------------------------------------------------
|-------------------------------------------------------------------
|----------------------0-------------------------------0------------
|--------------------2-------3-2---------------------2-------3-2----
|--7-0-0-6-0-0-5-0h3-----3-1-----0-7-0-0-6-0-0-5-0h3-----3-1-----0--



|-------------------------------------------------------
|-------------------------------------------------------
|--------------------6----------------------------------
|--6------4/6-7------6------7---9-----------------------
|--6------4/6-7------4------7---9-----------------------
|--4------2/4-5-------------5---7-----------------------


|-----------------------------------------------------------
|-----------------------------------------------------------
|--9-------5------------------9-------3------------------9--
|--9-------5------------------9-------3------------------9--
|--7-------3---------2---1----7-------1---------2---1----7--
|--------------0-2h3---3---2--------------0-2h3---3---2-----


|------------------------------------------------------------
|------------------------------------------------------------
|-9---12-11-10-----------------------------------------------
|-9---12-11-10-----------------------------------------------
|-7---10--9--8-------------5---5-4~~-------------------------
|--------------------0-2h3---3-------------------------------




  development and support by
dmitry ivanov