rock
 
|tablatures   |lyrics   |discussion forums   |more tabs @ XGuitar.com

Black Sabbath tabs

After All (The Dead) bass tab

Band:Black Sabbath
Song:After All (The Dead)
Album:Dehumanizer

G-----------------------------------------------------------------
D-----------------------------------------------------------------
A----2-1----3---2----2-1---5-4-3-2---2-1---3---2--3-2-1-----------
E--0------0--------0-----0---------0-----0--------------2-----3---

G----------------------
D----------------------
A-----------------3----x4
E--0-------3-2-1-------

G-------------------------
D-------------------6-7---
A--7---6---7----6-5-------x2
E-------------------------

G-------------------------------------
D-------------------------------------
A-----------------------5------3------
E--7-0-0-6-0-0-5----0-3----0-1---3p0--

G-----------------------------
D---------------------2---------
A------------0----4-4-----0-2---x2
E--4-----2-4-------------------

G-----------------------------------------------------
D-----------------------------------------------------
A-------3----------2---1----------1---------2---1-----
E--0---------0-2-3---3---2----0-------0-2-3---3---2---

G---------------------------------
D---------------------------------
A-------5-4-3----------5---5-4----x2
E--0-------------0-2-3---3--------
  development and support by
dmitry ivanov