rock
 
|tablatures   |lyrics   |discussion forums   |more tabs @ XGuitar.com

Beatles tabs

Youve Got To Hide Your Love Away bass tab

Date: Thu, 11 Apr 2002 21:53:49 +0200 (CEST)
From: =?iso-8859-1?q?Jan=20Bj=F6rklund?= <jani_bjorklund@yahoo.se>
Subject: b/beatles/youve_got_to_hide_your_love_away.btab

Beatles_You've Got to Hide Your Love Away

Basstab by Jan Bjorklund, Finland
<jani_bjorklund@yahoo.se>
You are welcome to request for basstabs!
Fingering and positions as suggested by TablEdit,
please use common sense!

TablEdited by Jan Bjorklund for Jim
Tuning : E A D G 	Time Signature: 4/4

  
|0-----0-|--------|--------|--------|----|------------|
|--0-3---|--------|--0-----|----3-2-|0-0-|--0-3-2-----|
|--------|3-3---3-|--------|3-3-----|----|----------2-|
|--------|----1---|3---1-3-|--------|----|3-------3---|
    
|--------|--------|--------|--------|------------|--------|
|----3-2-|--0-3---|----3-2-|0-------|------------|0-0-0-0-|
|3-3-----|--------|3-3-----|--3-2-0-|----0-2-3-3-|--------|
|--------|3-----3-|--------|--------|3-3---------|--------|
   
|------------|--------|0-----0-|--------|--------|--------|
|------------|0-0-0-0-|--0-3---|--------|--0-----|----3-2-|
|----0-2-3-3-|--------|--------|3-3---3-|--------|3-3-----|
|3-3---------|--------|--------|----1---|3---1-3-|--------|
  
|----|------------|--------|--------|--------|--------|
|0-0-|--0-3-2-----|----3-2-|--0-3---|----3-2-|0-------|
|----|----------2-|3-3-----|--------|3-3-----|--3-2-0-|
|----|3-------3---|--------|3-----3-|--------|--------|
  
|------------|--------|------------|--------|--------|--------|
|------------|0-0-0-0-|------------|0-0-0-0-|--0-3---|----3---|
|----0-2-3-3-|--------|----0-2-3-3-|--------|--------|3-3---3-|
|3-3---------|--------|3-3---------|--------|3-----3-|--------|
 
|--------|--------|--|
|--0-3---|----3---|--|
|--------|3-3---3-|--|
|3-----3-|--------|3-|
  


Created with TablEdit http://www.tabledit.com/
  development and support by
dmitry ivanov