rock
 
|tablatures   |lyrics   |discussion forums   |more tabs @ XGuitar.com

Beatles tabs

You Never Give Me Your Money bass tab

You Never Give Me Your Money.btab
Beatles

Basstab by Jan Bjorklund, Finland;
jani_bjorklund@yahoo.se
You are welcome to request for basstabs or standard notation!
Bienvenidos a pedirme transcripciones para el bajo!

TablEdited by Jan Bjorklund
Tuning : E A D G 	Time Signature: 4/4

 tempo 82|       |       intro    |       |       |       |
|--------------------------------|--------------------------------|
|--------------------------------|12------------------------------|
|12------------------------------|--------------------------------|
|--------------------------------|--------------------------------|

 |       |       |       |        |       |       |       |
|--------------------------------|12----------14------12----------|
|--------------------------------|------------------------141314--|
|10------------------------------|--------------------------------|
|--------------------------------|--------------------------------|

 |       |       |       |        |       |       |       |
|--------------------------------|--------------------------------|
|--------------------------------|------------14------------------|
|15------------------------------|14------------------------------|
|--------------------------------|--------------------------------|

 |       |       |       |        |       |       |       |
|14----------17------------------|----------------------------12--|
|--------------------------------|--------------------141314------|
|--------------------------------|--------------------------------|
|--------------------------------|--------------------------------|

 You never give me your...        |       |       |       |
|--------------------------------|--------------------------------|
|--------------------------------|--------------------------------|
|12------------------------------|--------------------------------|
|--------------------------------|--------------------------------|

 |       |       |       |        |       |       |       |
|--------------------------------|12----------12------------------|
|--------------------------------|--------------------141314------|
|--------------------------------|--------------------------------|
|--------------------------------|--------------------------------|

 |       |       |       |        |       |       |       |
|--------------------------------|--------------------------------|
|--------------------------------|--------------------------------|
|15------------------------------|15----------14------------------|
|--------------------------------|----------------------------12--|

 |       |       |       |        |       |       |       |
|--------------------------------|----------------1917----1412----|
|--------------------------------|--------------------1917----1412|
|12----------12------------------|--------------------------------|
|--------------------------------|--------------------------------|

 I never give you|my...  |        |       |       |       |
|--------------------------------|--------------------------------|
|--------------------------------|0-----------0-------2---3h--4---|
|0-------------------------------|--------------------------------|
|--------------------------------|--------------------------------|

 |       |       |       |        |       |       |       |
|--------------------------------|--------------------------------|
|5-------------------------------|--------------------0---2-------|
|--------------------------------|3-----------3-------------------|
|--------------------------------|--------------------------------|

 |       |       |       |        |       |       |       |
|--------------------------------|--------------------------------|
|3-------------------------------|--------0---2-------------------|
|--------------------------------|2---3---------------------------|
|--------------------------------|------------------------0-------|

 |       |       |       |        |       |       |       |
|--------------------------------|----------------0---------------|
|--------------------------------|--------------------3---2---0---|
|0-------------------------------|--------------------------------|
|--------------------------------|--------------------------------|

 Out of college, money spent...   |       |       |       |
|--------0---------------1-------|2---4---5---2---5---3---2---0---|
|----2-------2---2---4-------2---|--------------------------------|
|3-------------------------------|--------------------------------|
|--------------------------------|--------------------------------|

 |       |       |       |        |       |       |       |
|----0-0---------0---------------|--------0---2---3-3-2---0-------|
|3-3-----2---3-------3---2---0---|----2---------1-------------2-2-|
|--------------------------------|3-------------------------------|
|--------------------------------|--------------------------------|

 Any jobber got the sack...       |       |       |       |
|--------0---------------1-------|2---4---5---2---5---3---2---0---|
|----2-------2---2---4-------2---|--------------------------------|
|3-------------------------------|--------------------------------|
|--------------------------------|--------------------------------|

 |       |       |       |        |       |       |       |   But
|----0---2-------0---------------|--------0-0-2---3---2---0-------|
|3-----------3-------3---2---0---|----2-----------------------2---|
|--------------------------------|3-------------------------------|
|--------------------------------|--------------------------------|

 oh, that|magic feeling...        |       |       |       |
|--------------------------------|--------------------------------|
|--------------------------------|3-----------3---------------5---|
|1-----------1-------------------|--------------------------------|
|--------------------------------|--------------------------------|

 |       |       |       |        oh, that|magic feeling...
|--------------------------------|--------------------------------|
|------------------------5-------|--------------------------------|
|3-----------3-------------------|1-----------1-------------------|
|--------------------------------|--------------------------------|

 |       |       |       |        |       |       |       |
|--------------------------------|--------------------------------|
|--------------------------------|--------------------------------|
|--------------------------------|3-----------3-------------------|
|1-----------1---------------3---|--------------------------------|

 |       |       |       |        |       |       |       |
|--------------------------------|--------------------------------|
|--------------------------------|--------------------------------|
|1-----------1-------------------|--------------------------------|
|--------------------------------|1-----------1-------------------|

 |       |       |       |        |       |       |       |
|--------------------------------|--------------------------------|
|--------------------------------|--------------------------------|
|3-----------3-------------------|1-----------1-------------------|
|--------------------------------|--------------------------------|

 |       |       |       |        |       |       |       |
|--------------------------------|--------------------------------|
|--------------------------------|------------------------2-------|
|--------------------------------|3-----------3-------------------|
|1-----------1---------------3---|--------------------------------|

 hasta aqui por ahora... |
|--------------------------------|
|--------------------------------|
|1-----------1-------------------|
|------------------------3-------|


Created with TablEdit http://www.tabledit.com/
  development and support by
dmitry ivanov