rock
 
|tablatures   |lyrics   |discussion forums   |more tabs @ XGuitar.com

Beatles tabs

Yellow Submarine bass tab

Yellow submarine by the Beatles
Tabbed   Dennis B.
this is how i play it in my steel drums class on my electric bass



G:-----------------|
D:-----------------|
A: 5--------------5|
E:-----3-----5---- |

G:-----------------------------------------|
D:5---5----------------------------5----5|
A:--5----5----5---5----5----5------5---|
E:----------------5---5---5-----5--------|
  development and support by
dmitry ivanov