rock
 
|tablatures   |lyrics   |discussion forums   |more tabs @ XGuitar.com

Beatles tabs

While My Guitar Gently Weeps bass tab

While My Guitar Gently Weeps.btab
Beatles
TablEdited by Jan Bjorklund
Tuning : E A D G 	Time Signature: 4/4

 | tempo 114     |       |        |       |       |       |
|2-------------------------------|0-------------------------------|
|--------------------------------|--------------------------------|
|--------------------------------|--------------------------------|
|--------------------------------|--------------------------------|

 |       |       |       |        |       |       |       |
|--------------------------------|--------------------------------|
|4-------------------------------|3-------------------------------|
|--------------------------------|--------------------------------|
|--------------------------------|--------------------------------|

 |       |       |       |        |       |       |       |
|2-------------------------------|0-------------------------------|
|--------------------------------|--------------------------------|
|--------------------------------|--------------------------------|
|--------------------------------|--------------------------------|

 |       |       |       |        |       |       |       |
|--------------------------------|------------------------9-------|
|0-------------------------------|--------------------7h9---------|
|--------------------------------|7---------------------------7---|
|--------------------------------|--------------------------------|

 |       |       |       |        |       |       |       |
|--------------------------------|--------------------------------|
|7-------------------------------|5-------------------------------|
|--------------------------------|--------------------------------|
|--------------------------------|--------------------------------|

 |       |       |       |        |       |       |       |
|--------------------------------|--------------------------------|
|4-------------------------------|3-------------------------------|
|--------------------------------|--------------------------------|
|--------------------------------|--------------------------------|

 |       |       |       |        |       |       |       |
|2-------------------------------|0-------------------------------|
|--------------------------------|--------------------------------|
|--------------------------------|--------------------------------|
|--------------------------------|--------------------------------|

 |       |       |       |        |       |       |       |
|--------------------------------|--------------------------------|
|0-------0-----------------------|2---2---2-------2-------2-------|
|--------------------------------|--------------------------------|
|--------------------------------|--------------------------------|

 |       |       |       |        |       |       |       |
|2-------------------------------|0-------------------------------|
|--------------------------------|--------------------------------|
|--------------------------------|--------------------------------|
|--------------------------------|--------------------------------|

 |       |       |       |        |       |       |       |
|--------------------------------|--------------------------------|
|4-------4-----------------------|3-------3-----------------------|
|--------------------------------|--------------------------------|
|--------------------------------|--------------------------------|

 |       |       |       |        |       |       |       |
|--------------------------------|--------------------------------|
|--------------------------------|--------------------------------|
|0---0---0-----------------------|--------------------------------|
|--------------------------------|3---3---3-------3-------3-------|

 |       |       |       |        |       |       |       |
|--------------------------------|----------------1---1-----------|
|----------------------------0---|2---2---2---2h4---------2-------|
|3-------3-------3---2---3-------|--------------------------------|
|--------------------------------|--------------------------------|

 |       |       |       |        |       |       |       |
|2-------2-----------------------|------------------------4-------|
|------------------------2-------|----------------5p--6-----------|
|------------2---3/4-------------|4-----------7-------------------|
|--------------------------------|--------------------------------|

 |       |       |       |        |       |       |       |
|--------------------------------|------------------------4-------|
|----------------4p--2-----------|----------------6---------------|
|------------------------4p--2---|4-----------7-------------------|
|2-------------------------------|--------------------------------|

 |       |       |       |        |       |       |       |
|--------------------------------|--------------------------------|
|----------------4/--3-----------|----------------0-------2---0---|
|2-----------2-------------------|2-----------4-------------------|
|------------------------2-------|--------------------------------|

 |       |       |       |        |       |       |       |
|--------------------------------|1---1---1-------2---2-----------|
|2-------2-------4---4---4---0---|------------2-----------2-------|
|--------------------------------|--------------------------------|
|--------------------------------|--------------------------------|

 |       |       |       |        |       |       |       |
|2-------2-----------------------|------------------------4-------|
|------------------------2/--1---|----------------5h--6-----------|
|----------------2/--3-----------|4-----------7-------------------|
|--------------------------------|--------------------------------|

 |       |       |       |        |       |       |       |
|--------------------------------|------------------------4-------|
|4---4---4-------4p--2-----------|----------------5h--6-----------|
|------------------------2-------|4-----------7-------------------|
|--------------------------------|--------------------------------|

 |       |       |       |        |       |       |       |
|--------------------------------|--------------------------------|
|----------------4/--3-----------|----------------0-------1h--2---|
|2-------2-----------------------|2-----------4-------------------|
|------------------------2-------|--------------------------------|

 |       |       |       |        |       |       |       |
|--------------------------------|1---1-------1---2-------4-------|
|2-------2-------4---4-------4---|--------------------------------|
|--------------------------------|--------------------------------|
|------------------------2-------|--------------------------------|

 |       |       |       |        |       |       |       |
|2-------------------------------|0-------0-----------------------|
|--------------------------------|--------------------------------|
|--------------------------------|--------------------------------|
|--------------------------------|--------------------------------|

 |       |       |       |        |       |       |       |
|--------------------------------|------------------------0---2---|
|4-------4-----------------------|3-------3-----------------------|
|--------------------------------|----3---------------------------|
|--------------------------------|--------------------------------|

 |       |       |       |        |       |       |       |
|2---2---2/--1-------------------|0-------0-----------------------|
|--------------------------------|--------------------------------|
|--------------------------------|--------------------------------|
|--------------------------------|--------------------------------|

 |       |       |       |        |       |       |       |
|--------------------------------|------------------------1-------|
|0---0---0-----------------------|2---2-------2---4-----------0---|
|--------------------------------|--------------------------------|
|--------------------------------|--------------------------------|

 |       |       |       |        |       |       |       |
|2-------2-----------------------|0-------0-----------------------|
|--------------------------------|--------------------------------|
|--------------------------------|--------------------------------|
|--------------------------------|--------------------------------|

 |       |       |       |        |       |       |       |
|--------------------------------|--------------------------------|
|4-------4-----------------------|3-------3-----------------------|
|--------------------------------|--------------------------------|
|--------------------------------|--------------------------------|

 |       |       |       |        |       |       |       |
|2---2---2-----------------------|0-------0---------------0-------|
|--------------------------------|----------------------------0---|
|--------------------------------|--------------------------------|
|--------------------------------|--------------------------------|

 |       |       |       |        |       |       |       |
|--------------------------------|----------------1---------------|
|------------------------0---0---|2---2---2---4-----------2-------|
|3-------3---2---3---------------|--------------------------------|
|--------------------------------|--------------------------------|

 |       |       |       |        |       |       |       |
|2-------2-----------2---2---0---|0---0---0-----------------------|
|--------------------------------|--------------------------------|
|----0---------------------------|--------------------------------|
|--------------------------------|--------------------------------|

 |       |       |       |        |       |       |       |
|--------------------------------|------------------------0h--2---|
|4---4---4-----------------------|3-------3-------3h--5-----------|
|--------------------------------|--------------------------------|
|--------------------------------|--------------------------------|

 |       |       |       |        |       |       |       |
|2---2---2-----------------------|0---0---0-----------------------|
|--------------------------------|--------------------------------|
|--------------------------------|--------------------------------|
|--------------------------------|--------------------------------|

 |       |       |       |        |       |       |       |
|--------------------------------|--------------------------------|
|0-------0-------0-------0---1---|2---------------------------2---|
|--------------------4-----------|--------------------3h--4-------|
|--------------------------------|--------------------------------|

 |       |       |       |        |       |       |       |
|2---2---2-------2---2---2-------|0---0---0-------0-------0-------|
|--------------------------------|--------------------------------|
|--------------------------------|--------------------------------|
|--------------------------------|--------------------------------|

 |       |       |       |        |       |       |       |
|--------------------------------|------------------------0h--2---|
|4---4---4-------4-------4-------|3---3---3-------3h--5-----------|
|--------------------------------|--------------------------------|
|--------------------------------|--------------------------------|

 |       |       |       |        |       |       |       |
|2---2---2-------2-------2-------|0---0---0-------0---------------|
|--------------------------------|------------------------2-------|
|--------------------------------|----------------------------3---|
|--------------------------------|--------------------------------|

 |       |       |       |        |       |       |       |
|--------------------------------|----------------1---------------|
|------------------------0h--2---|2---2---2---4-----------2-------|
|3---3---3---2-------3-----------|--------------------------------|
|--------------------------------|--------------------------------|

 |       |       |       |        |       |       |       |
|2-------2/--0-------------------|------------------------4-------|
|------------------------2-------|----------------4h--6-------6---|
|----------------3h--4-----------|4-----------7-------------------|
|--------------------------------|--------------------------------|

 |       |       |       |        |       |       |       |
|--------------------------------|----------------1-------4---1---|
|4-------4-------4p--2-----------|------------2-------------------|
|------------------------4p--2---|4-------------------------------|
|--------------------------------|--------------------------------|

 |       |       |       |        |       |       |       |
|--------------------------------|--------------------------------|
|----------------4/--3-----------|----------------0---0---1-------|
|2-------2-----------------------|2-----------4-------------------|
|------------------------2-------|--------------------------------|

 |       |       |       |        |       |       |       |
|--------------------------------|1---1-------1---2---2---4-------|
|2-------2-------4---4---2---4---|--------2-----------------------|
|--------------------------------|--------------------------------|
|--------------------------------|--------------------------------|

 |       |       |       |        |       |       |       |
|2-----------2-------------------|----------------1-------4---1---|
|------------------------2-------|------------2-------------------|
|----------------3h4-------------|4-------------------------------|
|--------------------------------|--------------------------------|

 |       |       |       |        |       |       |       |
|--------------------------------|----------------1-------4p--1---|
|4-------4-------4p--2-----------|------------2-------------------|
|------------------------4p--2---|4-------------------------------|
|--------------------------------|--------------------------------|

 |       |       |       |        |       |       |       |
|--------------------------------|--------------------------------|
|----------------4/--3-----------|----------------0-------1h--2---|
|2-----------2-------------------|2-----------4-------------------|
|------------------------2-------|--------------------------------|

 |       |       |       |        |       |       |       |
|--------------------------------|----------------2-------4-------|
|2---2-----------4---4-----------|2---2-------2-------------------|
|--------------------------------|--------2-----------------------|
|------------------------1---2---|--------------------------------|

 |       |       |       |        |       |       |       |
|2-------2-----------------------|0-------0-----------------------|
|--------------------------------|--------------------------------|
|--------------------------------|--------------------------------|
|--------------------------------|--------------------------------|

 |       |       |       |        |       |       |       |
|--------------------------------|--------------------0---0---2---|
|4---4---4-----------------------|3-------3-----------------------|
|--------------------------------|--------------------------------|
|--------------------------------|--------------------------------|

 |       |       |       |        |       |       |       |
|2---2---2-----------------------|0---0---0-----------------------|
|--------------------------------|--------------------------------|
|--------------------------------|--------------------------------|
|--------------------------------|--------------------------------|

 and so on...    |       |
|--------------------------------|
|--------------------------------|
|--------------------------------|
|--------------------------------|


Created with TablEdit http://www.tabledit.com/
  development and support by
dmitry ivanov