rock
 
|tablatures   |lyrics   |discussion forums   |more tabs @ XGuitar.com

Beatles tabs

When Im Sixty-four bass tab

Song: When I'm Sixty-four
Artist: Beatles
Album: Sgt. Peppers Lonely Hearts Club Band
Tabbed By: Kenny Borders (Spankielnc@aol.com)

G---------------------|-------------------------------------------|
D---------------------|-------------------------------------------|
A---4---4-------4---4-|-4---4---4---4---4-----6---6---6---1-2-3-4-|
E-----4---4-2-4---4---|---4---4---4---4---4-4---4---4---4---------|

G-------------------------------------|
D-------------------------------------|
A---4---4---4-----4---------6---4---4-|
E-----4---4---4-2---2-3-4-6---4---4---|

G-----------------------------------------------------------------|
D-----------------------------------------------------------------|
A-----------------------------------------------------3-3-3-3-3-3-|
E---6-6-6-6-6-6-6-6-4-4-4-4-6-6-6-6-6-6-6-6-6-6-6-6-1-------------|

G---------------------------------------------------------------------------|
D-------------------------------------------------------------------------4-|
A-------------------6-6-6-6-6-6-6-7-----------------4-4-4-4-----------3-6---|
E---6-6-6-6-6-6-6-6-----------------2-2-2-2-4-4-4-4---------4--4-4--4-------|

G----------------------------------------------------------------------|
D----------------------------------------------------------------------|
A---4---4---4-----6---6---6---1-2-3-4-4---4---4-----4---------6---4--4-|
E-----4---4---4-4---4---4---4-----------4---4---4-2---2-3-4-6---4---4--|

G-----------------------------------------------------------------|
D-----------------------------------------------------------------|
A-----------------------------------------------------3-3-3-3-3-3-|
E---6-6-6-6-6-6-6-6-4-4-4-4-6-6-6-6-6-6-6-6-6-6-6-6-1-------------|

G---------------------------------------------------------------------------|
D---8-8-8-8-8-8-8-8-------------------------------------------------------4-|
A-------------------6-6-6-6-6-6-6-7-----------------4-4-4-4-----------3-6---|
E-----------------------------------2-2-2-2-4-4-4-4---------4--4-4--4-------|

G-----------------------------------------------------------------------|
D-----------------------------------------------------------------------|
A---4---4---4-----6---6---6---1-2-3-4-4---4---4-----4---------6---4---4-|
E-----4---4---4-4---4---4---4-----------4---4---4-2---2-3-4-6---4---4---|

G---------------------|
D---------------------|
A---4---4-------4---4-|
E-----4---4-2-4---4---|
  development and support by
dmitry ivanov