rock
 
|tablatures   |lyrics   |discussion forums   |more tabs @ XGuitar.com

Beatles tabs

Wait bass tab

WAIT (Bassline)
                           As recorded by The Beatles
                        (From the 1965 Album RUBBER SOUL)

Words and Music by John Lennon & Paul McCartney
Arranged by Beatles Complete Scores

Gtr I (E A D G) - 'Bass'

              Verse 1 & 2
  Q=130
 4/4
  Gtr I
  W            Q.   E +H       Q.   E +H       Q.   E +H
|----------||----------------|---------------|---------------|
|----------||o---------------|---------------|---------------|
|----------||o---------------|---------------|-4-------------|
|----------||--2----2-(2)----|-2----2-(2)----|------2-(2)----|


                                                  Chorus 1 & 2
  Q.   E +H       Q.   E +H       Q.   E +H        Q  Q  Q  Q
|---------------|---------------|---------------||--------------|
|---------------|---------------|---------------||-7--7---------|
|---------------|---------------|-4-------------||-------5--5---|
|-2----2-(2)----|-2----2-(2)----|------2-(2)----||--------------|


                                            1.
  Q  Q  Q  Q    Q  Q  Q  Q    Q  Q  Q  Q    H.      Q
|-------------|-------------|-------------|--------------||
|-7--7--------|-7--7--------|-7--7--------|-4-----------o||
|-------5--5--|-------5--5--|-------4--4--|-------------o||
|-------------|-------------|-------------|--------------||


                    Bridge 1
  2.
  E E E E E E E E    E E E E E E E E   E E E E E E E E   E E E E E E E E
|-----------------||-----------------|-----------------|------------------|
|-----------------||-----------------|-2-2-2-2-----2-2-|------------------|
|-----------------||-2-2-2-2-----2-2-|---------2-2-----|-0-0-0-0-0-0-0----|
|-2-2-2-2-2-2-2-2-||---------2-2-----|-----------------|---------------4--|


  E E E E E E E E   E E E E E E E E   E E E E E E E E    E E E E E E E E
|-----------------|-----------------|-----------------|-------------------|
|-----------------|-----------------|-2-2-2-2-----2-2-|-/7-7-7-7-7-7-7-7--|
|-----------------|-2-2-2-2-2-2-2-2-|---------2-2-----|-------------------|
|-2-2-2-2-2-2-2-2-|-----------------|-----------------|-------------------|


              Verse 3 & 4
  W            Q.   E +H       Q.   E +H       Q.   E +H
|----------||----------------|---------------|---------------|
|----------||o---------------|---------------|---------------|
|-4--------||o---------------|---------------|-4-------------|
|----------||--2----2-(2)----|-2----2-(2)----|------2-(2)----|


                                                  Chorus 3 & 4
  Q.   E +H       Q.   E +H       Q.   E +H        Q  Q  Q  Q
|---------------|---------------|---------------||--------------|
|---------------|---------------|---------------||-7--7---------|
|---------------|---------------|-4-------------||-------5--5---|
|-2----2-(2)----|-2----2-(2)----|------2-(2)----||--------------|


                                           1.
  Q  Q  Q  Q    Q  Q  Q  Q    Q  Q  Q  Q    E E E E E E E E
|-------------|-------------|-------------|------------------||
|-7--7--------|-7--7--------|-7--7--------|------------------||
|-------5--5--|-------5--5--|-------4--4--|------------------||
|-------------|-------------|-------------|-2-2-2-2-2-2-2-2--||


 Bridge 2
  E E E E E E E E   E E E E E E E E   E E E E E E E E
|-----------------|-----------------|-----------------|
|-----------------|-2-2-2-2-----2-2-|-----------------|
|-2-2-2-2-----2-2-|---------2-2-----|-0-0-0-0-0-0-0---|
|---------2-2-----|-----------------|---------------4-|


  E E E E E E E E   E E E E E E E E   E E E E E E E E    E E E E E E E E
|-----------------|-----------------|-----------------|-------------------|
|-----------------|-----------------|-2-2-2-2-----2-2-|-/7-7-7-7-7-7-7-7--|
|-----------------|-2-2-2-2-2-2-2-2-|---------2-2-----|-------------------|
|-2-2-2-2-2-2-2-2-|-----------------|-----------------|-------------------|


                Outro
                 2.
  H.      Q      W          Q.   E +H       Q.   E +H       Q.   E +H
|-------------||----------|---------------|---------------|---------------|
|------------o||-4--------|---------------|---------------|---------------|
|-4----------o||----------|---------------|---------------|-4-------------|
|-------------||----------|-2----2-(2)----|-2----2-(2)----|------2-(2)----|


                                  Q=80
                                             TP
  Q.   E +H       Q.   E +H       W          W          +W
|---------------|---------------|----------|----------|--------*|
|---------------|---------------|----------|----------|--------*|
|---------------|---------------|-4--------|----------|--------*|
|-2----2-(2)----|-2----2-(2)----|----------|-2--------|-(2)----*|
  development and support by
dmitry ivanov