rock
 
|tablatures   |lyrics   |discussion forums   |more tabs @ XGuitar.com

Beatles tabs

Two Of Us bass tab

TWO OF US (Bassline)
                           As recorded by The Beatles
                         (From the 1970 Album LET IT BE)

Words and Music by John Lennon & Paul McCartney
Transcribed by Slowhand (http://www.instantpowertabs.de.vu)

Gtr I (E A D G) - 'Paul McCartney (Bass)'

   Intro & Interlude
    Q=109
   4/4
    Gtr I
    W          W           E  E  Q   S  S  S S  S  S  S S
||-----------|----------|-------12--------12--------------|
||o----------|----------|-----------12s14------------12---|
||o----------|----------|-10-10----------------12s14------|
||-----------|----------|---------------------------------|


                                  $
                                  $$
   E  E  Q   S  S  S S  S  S  S S
|-------12-------------------12---||
|-----------------12---12s14------||
|-10-10-----12s14-----------------||
|---------------------------------||


 1st - 4th Verses
   E  E  Q   S  S  S S  S  S  S S    E  E  Q   S  S  S S  S  S  S S
|-------12-------------------12---|-------12-------------------12----|
|-----------------12---12s14------|-----------------12---12s14-------|
|-10-10-----12s14-----------------|-10-10-----12s14------------------|
|---------------------------------|----------------------------------|


 2/4         4/4
   E  E  Q     E E  Q  E E Q    E E Q  Q  Q    E E  Q   S  S  S S  S  S  S S
|-------12--|-----------------|--------------|-----12-------------------12---|
|-----------|-10-9-10--9-7-9--|-7-5-7--5--7--|-5-5-----------12---12s14------|
|-10-10-----|-----------------|--------------|---------12s14-----------------|
|-----------|-----------------|--------------|-------------------------------|


                                   2/4
   E  E  Q   S  S  S S  S  S  S S    E  E  Q
|-------12-------------------12---|-------12--||
|-----------------12---12s14------|-----------||
|-10-10-----12s14-----------------|-10-10-----||
|---------------------------------|-----------||


 Chorus
 4/4
   E  E  Q   E  E  Q     E  E  Q   Q   Q
|---------------------|-------------------|
|---------------------|-------------------|
|-15-14-15--14-12-14--|-12-10-12--10--12--|
|---------------------|-------------------|


 3/4
   Q   E E E  E    Q   Q   S  S  S S    Q   E E E  E    Q   Q   S  S  S S
|---------------|---------------12---|---------------|---------------12---|
|--------9---10-|-12--12--12s14------|--------9---10-|-12--12--12s14------|
|-10--10--------|--------------------|-10--10--------|--------------------|
|---------------|--------------------|---------------|--------------------|


                               1.
                      To Coda
                  2/4          4/4
   Q   E  E E  E    Q   E  E     W
|----------------|------------|--------||
|----------------|-10--10-12--|-------o||
|-10--10-12---14-|------------|-10----o||
|----------------|------------|--------||


                            Bridge
  2.,D.S.
   W           +W             Q.    E  E  E  E  E
|-----------|-------------||----------------------|
|-----------|-------------||----------------12-15-|
|-10--------|-(10)--------||-13----12-13-15-------|
|-----------|-------------||----------------------|


  H     E  E  E  E    E  E  E  E  E  E  E  E
|------------12-14-|-------------------10----|
|------12-15-------|-------------10-12----12-|
|------------------|-10-10-12-13-------------|
|------------------|-------------------------|


   E  E  E  E  E  E  E  E    E  E  E  E  E  E  E  E
|-------------------12----|-------------------12-16-|
|-------------12-14----14-|----------10-12-14-------|
|-12-12-12-12-------------|-12-12-12----------------|
|-------------------------|-------------------------|


                           Outro
                    D.S. &
                    D.S.
                           4/4
   E  E  E  E  Q   E  E      W           +W
|-14-14-12---------------||-----------|---------|
|----------14-12--14-12--||-----------|---------|
|------------------------||-----------|---------|
|------------------------||-15--------|-(15)----|


  Wx2           E  E  Q   S  S  S S  S  S  S S
|------------|-------12-------------------12---|
|------------|-----------------12---12s14------|
|------------|-10-10-----12s14-----------------|
|------------|---------------------------------|


   E  E  Q   S  S  S S  S  S  S S
|-------12-------------------12----|
|-----------------12---12s14-------|
|-10-10-----12s14------------------|
|----------------------------------|


     E  E  Q   S  S  S S  S  S  S S    E  E  Q   S  S  S  S  +S   S  S  S
||-----------------------------12---|-------12----------------------------|
||o-------10--------12---12s14------|-----------------12-14-(14)-12-------|
||o-10-10-----12s14-----------------|-10-10-----12s14---------------14-12-|
||----------------------------------|-------------------------------------|


   E  E  Q   E  E  E  E    E  E  Q   E  E  E  E
|-------12--------------|-------12---------------||
|-----------14s12-------|-----------14s12-------o||
|-10-10-----------14-12-|-10-10-----------14-12-o||
|-----------------------|------------------------||
  development and support by
dmitry ivanov