rock
 
|tablatures   |lyrics   |discussion forums   |more tabs @ XGuitar.com

Beatles tabs

Twist And Shout bass tab

"TWIST AND SHOUT"
BY THE BEATLES
TABBED BY FRANKMAN


verse

G-------4------------ keep repeating this
D-----5---7-77-------
A-5-5--------------4-
E--------------3-5---


the aaaahhhhhh part

G----- play this note throughout this part
D-----
A-----
E-5---


OUTRO

G----------------------
D----------------------
A-----4-5-7-9-10-11-12-
E-5-7------------------

Taken from www.basstabz.com
  development and support by
dmitry ivanov