rock
 
|tablatures   |lyrics   |discussion forums   |more tabs @ XGuitar.com

Beatles tabs

Till There Was You bass tab

Band:The Beatles
Song:Till there was you
tabbed by thestrokes***ingrock

|------|----|----|----|----|--|--|----|----|--------|----------|
|--0-2-|----|----|----|----|--|--|----|----|--------|------0-2-|
|3-----|----|--3-|----|--3-|--|--|----|1-1-|----0---|----3-----|
|------|1-2-|3---|1-2-|3---|1-|2-|3-3-|----|1-1---4-|3-3-------|

|--------|----------|--|--|----|----|--------|----------|--------|
|3-3-3-3-|------0-2-|--|--|----|----|--------|------0-2-|3-3-3-3-|
|--------|----3-----|--|--|----|1-1-|----0---|----3-----|--------|
|--------|3-3-------|1-|2-|3-3-|----|1-1---4-|3-3-------|--------|

|--------|--|----|------|----|--|------|--|----|----|------|
|--------|--|----|------|----|--|------|--|----|3-3-|------|
|------0-|1-|1-1-|------|----|--|--0-1-|3-|3-3-|----|----0-|
|1-1-3---|--|----|1-0-1-|2-2-|3-|3-----|--|----|----|2-2---|

|----|----------|--------|----------|--------|0-------|--|--|
|----|----3-----|--------|------0-2-|3-3-3-3-|--0-----|--|--|
|----|1-4---4-1-|----0---|----3-----|--------|----3-3-|--|--|
|3-3-|----------|1-1---4-|3-3-------|--------|--------|1-|2-|

|----|----|--------|----------|--------|--------|--|----|------|
|----|----|--------|------0-2-|3-3-3-3-|--------|--|----|------|
|----|1-1-|----0---|----3-----|--------|------0-|1-|1-1-|------|
|3-3-|----|1-1---4-|3-3-------|--------|1-1-3---|--|----|1-0-1-|

|----|--|------|--|----|----|------|----|----------|--------|
|----|--|------|--|----|3-3-|------|----|----3-----|--------|
|----|--|--0-1-|3-|3-3-|----|----0-|----|1-4---4-1-|----0---|
|2-2-|3-|3-----|--|----|----|2-2---|3-3-|----------|1-1---4-|

|----------|--------|0-------|------------|----|------|------|
|------0-2-|3-3-3-3-|--0-----|------------|----|------|----1-|
|----3-----|--------|----3-3-|3-3-3-2-2-2-|3-3-|--0-3-|--4---|
|3-3-------|--------|--------|------------|----|1-----|4-----|

|--|----|
|--|----|
|--|----|
|1-|1-1-|
  development and support by
dmitry ivanov