rock
 
|tablatures   |lyrics   |discussion forums   |more tabs @ XGuitar.com

Beatles tabs

Ticket To Ride bass tab

BEATLES - TICKET TO RIDE

TABBED BY JIM COTTRELL (BOBTUCKER9@HOTMAIL.COM) WWW.CLIK.TO/AMBRE

Intro
|--------------------------------|--------------------------------|
|--------------------------------|--------------------------------|
|0-----------0-------------------|0-----------0-------------------|
|--------------------------------|--------------------------------|

Verse 1
|--------------------------------|--------------------------------|
|--------------------------------|--------------------------------|
|0-----------0-------------------|0-----------0-------------------|
|--------------------------------|--------------------------------|

|--------------------------------|--------------------------------|
|--------------------------------|--------------------------------|
|0-----------0-------------------|0-----------0-------------------|
|--------------------------------|--------------------------------|

|--------------------------------|--------------------------------|
|--------------------------------|--------------------------------|
|0-----------0-------------------|0-----------0-------------------|
|--------------------------------|--------------------------------|

|--------------------------------|--------------------------------|
|--------------------------------|--------------------------------|
|2-----------2-------------------|--------------------------------|
|--------------------------------|0-----------0-------------------|

Chorus 1
|--------------------------------|--------------------------------|
|4-----------4-------------------|0-----------0-------------------|
|--------------------------------|--------------------------------|
|--------------------------------|--------------------------------|

|--------------------------------|0-------------------------------|
|4-----------4-------------------|--------------------------------|
|--------------------------------|--------------------------------|
|--------------------------------|--------------------------------|

|--------------------------------|--------------------------------|
|4-----------4-------------------|2-----------2-------------------|
|--------------------------------|--------------------------------|
|--------------------------------|--------------------------------|

* Repeat  Verse 1 *

Chorus 2
|--------------------------------|--------------------------------|
|4-----------4-------4-----------|0-----------0-------0-----------|
|----------------4---------------|----------------0---------------|
|--------------------------------|--------------------------------|

|--------------------------------|0-------------------------------|
|4-----------4---------------4---|--------------------------------|
|----------------4---------------|--------------------------------|
|--------------------------------|--------------------------------|



|--------------------------------|--------------------------------|
|4-----------4-------4-----------|2-----------------------2-------|
|----------------4---------------|----------------2---2-------2---|
|--------------------------------|--------------------------------|

|--------------------------------|--------------------------------|
|--------------------------------|----------------2---------------|
|0-----------0-------------------|0-----------0-----------0-------|
|--------------------------------|--------------------------------|

Bridge
|--------------------------------|--------------------------------|
|0-------0-----------------------|0-------0-----------------------|
|----------------0---0---0---3---|----------------0---0---0---3---|
|--------------------------------|--------------------------------|

|--------------------------------|--------------------------------|
|0-------0-------------------0---|2-------2---------------2-------|
|----------------0---0---0-------|----------------2---2-------2---|
|--------------------------------|--------------------------------|

|--------------------------------|--------------------------------|
|0-------0-----------------------|0-------0-----------------------|
|----------------0---0---0---3---|----------------0---0---0---3---|
|--------------------------------|--------------------------------|

|--------------------------------|--------------------------------|
|0-------0-------------------0---|2-------------------------------|
|----------------0---0---0-------|--------------------------------|
|--------------------------------|--------------------------------|

Verse 2
|-------solo---------------------|--------------------------------|
|-------solo---------------------|--------------------------------|
|-------solo---------------------|0---------------0---0-----------|
|-------solo---------------------|--------------------------------|

|--------------------------------|--------------------------------|
|--------------------------------|--------------------------------|
|0---------------0---0-----------|0---------------0---0-----------|
|--------------------------------|--------------------------------|

|--------------------------------|--------------------------------|
|--------------------------------|--------------------------------|
|0---------------0---0-----------|0---------------0---0-----------|
|--------------------------------|--------------------------------|

|--------------------------------|--------------------------------|
|--------------------------------|--------------------------------|
|0---------------0---0-----------|2-----------2-------------------|
|--------------------------------|--------------------------------|

|--------------------------------|
|--------------------------------|
|--------------------------------|
|0-----------0-------------------|

Repeat Chorus 2
Repeat Bridge
Repeat Verse 1

|--------------------------------|--------------------------------|
|--------------------------------|--------------------------------|
|0-----------0-------------------|0-------------------------------|
|--------------------------------|--------------------------------|

Outro

|--------------------------------|
|--------2---------------2-------|  X 15
|0---------------0---------------|
|--------------------------------|

WWW.CLIK.TO/AMBRE
  development and support by
dmitry ivanov