rock
 
|tablatures   |lyrics   |discussion forums   |more tabs @ XGuitar.com

Beatles tabs

Think For Yourself bass tab

"Think For Yourself"
The Beatles
Rubber Soul 1965

This is my version of the fuzz bass line that Paul played over top of the already
exsisting bass line.Its not perfect but i noticed the internet was lacking this so
i tabbed it by memory thus the not quite exact chorus line.but this is a great
guidline.ill correct it once i go listen to the record somemore and jog my memory.
Or if someone emails me  and really wants it.till then......

        Intro                         verse
G|---0--0--0--0--X----0--0--0-----------------7h---
D|-3/5--5--5--5--X--3/5--5--5--5--6--7h----7-------
A|-------------------------------------------------
E|-------------------------------------------------
                                     ("I've got a word...)
G|-7/9--7--5--3h-----3--5---5-5--------------------
D|-------------------------------5h--5-5-0-5h---5-5
A|-------------------------------------------------
E|-------------------------------------------------

G|----------7h---7/9--7--5--3h---3---5-5-----------
D|6-7h---7--------------------------------5h--5-5-0
A|-------------------------------------------------
E|-------------------------------------------------

G|-------------------------------------------------
D|7--7--7--7---------------------------------------
A|-------------------------------------------------
E|-------------------------------------------------
                into chorus...

G|-----------------------3h--2p0--------------------
D|-----1------3--1----------------3--0--------------
A|3-3-----3---------3-------------------------------
E|--------------------------------------------------
  ("do what you want.....")

G|------3--------3------3----------------------------
D|5--5-----5--5-----5h-----5--3----------------------
A|-------------------------------3--1----------------
E|---------------------------------------------------
  ("and go where you....")

G|--------------------3h--------------0--0-----------
D|1h---1--0---0--3/5-------0--3--3-4--5--5--6--7-----
A|---------------------------------------------------
E|---------------------------------------------------
  ("think for yourself...")                into verse...
  development and support by
dmitry ivanov