rock
 
|tablatures   |lyrics   |discussion forums   |more tabs @ XGuitar.com

Beatles tabs

The Night Before bass tab

Title       : The Night Before
Artist      : The Beatles
Album       : Help!
Tabbed By   : Ken Robertson
-------------------------------------------------------------------------------


G--------------------|-----------------|------------------|------------------|
D--------------------|-----------------|-3/5-5----3/5-5---|-5/7-7----5/7-7---|
A---3/5-5----3/5-5---|7/8-8----7/8-8---|-------5--------5-|-------7--------7-|
E---------5--------5-|------8--------8-|------------------|------------------|


G------------------------------|----------------------------|
D------------------------------|----------------------------|
A---5-5----3-3--------5------7-|-5-5----3-3--------5------7-|
E-------5------3--3-3----5-5---|-----5------3--3-3----5-5---|


G----------------|--------------|----------------------------|
D----------------|--------------|----------------------3-3-5-|
A---2-2--------3-|-2-2--------3-|-5-5--------5--5-5----------|
E-------2--3-3---|-----2--3-3---|-----5--3-3--------5--------|


G------------------------------|----------------------------|
D------------------------------|----------------------------|
A---5-5----3-3--------5------7-|-5-5----3-3--------5------7-|
E-------5------3--3-3----5-5---|-----5------3--3-3----5-5---|


G----------------|--------------|----------------------------|
D----------------|--------------|----------------------------|
A---2-2--------3-|-2-2--------3-|-5-5--------5--5-5----5-5---|
E-------2--3-3---|-----2--3-3---|-----5--3-3--------5------5-|


G------------------------------|-------------------------------|
D---7-7-----------5-5----5-5---|--------2-2--------------------|
A-------7--5-5--------5------5-|-2-2--------2------------------|
E--------------5---------------|-----2---------5-5-5-5-5-5-5-5-|


G------------------------------|----------------------------|
D------------------------------|----------------------------|
A---5-5----3-3--------5------7-|-5-5----3-3--------5------7-|
E-------5------3--3-3----5-5---|-----5------3--3-3----5-5---|


G----------------|--------------|----------------------------|
D----------------|--------------|----------------------3-3-5-|
A---2-2--------3-|-2-2--------3-|-5-5--------5--5-5----------|
E-------2--3-3---|-----2--3-3---|-----5--3-3--------5--------|


G------------------------------|----------------------------|
D------------------------------|----------------------------|
A---5-5----3-3--------5------7-|-5-5----3-3--------5------7-|
E-------5------3--3-3----5-5---|-----5------3--3-3----5-5---|


G----------------|--------------|----------------------------|
D----------------|--------------|----------------------------|
A---2-2--------3-|-2-2--------3-|-5-5--------5--5-5----5-5---|
E-------2--3-3---|-----2--3-3---|-----5--3-3--------5------5-|


G----------------|--------------|----------------------------|
D----------------|--------------|----------------------------|
A---2-2--------3-|-2-2--------3-|-5-5--------5--5-5----5-5---|
E-------2--3-3---|-----2--3-3---|-----5--3-3--------5------5-|


G------------------------------|-------------------------------|
D---7-7-----------5-5----5-5---|--------2-2--------------------|
A-------7--5-5--------5------5-|-2-2--------2------------------|
E--------------5---------------|-----2---------5-5-5-5-5-5-5-5-|


G------------------------------|----------------------------|
D------------------------------|----------------------------|
A---5-5----3-3--------5------7-|-5-5----3-3--------5------7-|
E-------5------3--3-3----5-5---|-----5------3--3-3----5-5---|


G----------------|--------------|--------------------------------------|
D----------------|--------------|--------------------------------------|
A---2-2--------3-|-2-2--------3-|-5-5--------5--5-5----3-3-3--5-5----5-|
E-------2--3-3---|-----2--3-3---|-----5--3-3--------5-------------5----|
  development and support by
dmitry ivanov