rock
 
|tablatures   |lyrics   |discussion forums   |more tabs @ XGuitar.com

Beatles tabs

Taxman bass tab

Bass tab - Taxman by the Beatles.
From:  Mike Ackley (phsmaa@leeds.ac.uk)


TAXMAN
======
(Harrison)

>From Revolver.


Verse:

[D7]
|-----7---------5--|
|--------5-h-7-----|  (x3)
|--5---------------|
|------------------|

|---------------5--|
|------------7-----|
|--5--5------------|
|------------------|


Chorus:

[C7]                  [C7]
|-----5---------3-h-5-|-----5---------3-h-5-|
|--------3-h-5--------|--------3-h-5--------|
|--3------------------|--3------------------|
|---------------------|---------------------|

[G7]                  [D7]
|---------------------|-----7---------5-h-7-|
|-----5---------3-h-5-|--------5-h-7--------|
|--------3-h-5--------|--5------------------|
|--3------------------|---------------------|


There's a middle bit too which is basically the same riff:

There, that's it innit.   You can also use the same riff sor @Start@ 
by the Jam.

Mike
  development and support by
dmitry ivanov