rock
 
|tablatures   |lyrics   |discussion forums   |more tabs @ XGuitar.com

Beatles tabs

Strawberry Fields Forever bass tab

Beatles_Strawberry Fields Forever

Basstab by Jan Bjorklund, Finland

You are welcome to request for basstabs!
Fingering and positions as suggested by TablEdit,
please use common sense!

TablEdited by Jan Bjorklund for Jim
Tuning : E A D G 	Time Signature: 4/4

|2-||9-9-|9-|1111|11119-|----9-1111|1111|7-4-|--|9-|9-|
|--||----|--|----|------|1212------|----|----|7-|--|--|
|--||----|--|----|------|----------|----|----|--|--|--|
|--||----|--|----|------|----------|----|----|--|--|--|

|119-|--14--14|7-9-|141311--|7-9-|191816----|14||----16--|
|----|12--12--|----|------14|----|------19--|--||1417--17|
|----|--------|----|--------|----|--------19|--||--------|
|----|--------|----|--------|----|----------|--||--------|

|9-12--12|6-||------151618|18|7-7-|--|  Bass
|119-|----11--1113|
|----12--|--||----16------|--|----|7-|  Pause
|----|1214--14----|
|--------|--||1719--------|--|----|--|
|----|------------|
|--------|--||------------|--|----|--|
|----|------------|

|14----11--|7-7-7-7-9-9-9-9-|--111411------------|--||9-1212129-12129-|
|--1411--14|----------------|12--------111412----|--||----------------|
|----------|----------------|--------12------1214|12||----------------|
|----------|----------------|--------------------|--||----------------|

|9-121212--121212|----------------|----------------|------151618|
|--------12------|1111111111111111|1111111111111111|----16------|
|----------------|----------------|----------------|1719--------|
|----------------|----------------|----------------|------------|

|18|7-7-|--|||||119-|----11--1113|14----11--|7-7-7-7-9-9-9-9-|
|--|----|7-|||||----|1214--14----|--1411--14|----------------|
|--|----|--|||||----|------------|----------|----------------|
|--|----|--|||||----|------------|----------|----------------|

|--111411------------|--||9-1212129-12129-|9-121212--121212|
|12--------111412----|7-||----------------|--------12------|
|--------12------1214|--||----------------|----------------|
|--------------------|--||----------------|----------------|
  (eight 11:s/bar)
|----------------|----------------|------151618|18|7-7-|
|1111111111111111|1111111111111111|----16------|--|----|
|----------------|----------------|1719--------|--|----|
|----------------|----------------|------------|--|----|

|----|7-7-|--|7-9-|7-|
|7---|----|7-|----|--|
|--9-|----|--|----|--|
|----|----|--|----|--|



Created with TablEdit http://www.tabledit.com/
  development and support by
dmitry ivanov