rock
 
|tablatures   |lyrics   |discussion forums   |more tabs @ XGuitar.com

Beatles tabs

She Loves You bass tab

Artist: The Beatles
Song: "She Loves You"
Written by John Lennon and Paul McCartney
Tuning: Standard E A D G
Tabbed by Jesse Pollack



Intro:

"She Loves You, Yea, Yea, Yea..."

G---------------------------------2-----2--------------
D-2-2----2-2--------2-----2----2-2---2-2----2-2----2-2-
A----2------2----2-2---2-2---------------------2------2
E------------------------------------------------------

"You Think You've Lost..."

G------------------------------------------------------
D-------2-22--------0-00-------------------------------
A-------------2-22------------------------------------- (X2)
E-3-33-------------------------------------------------

"She Says She Loves You..."

G---------------------------------2-----2--------------
D-2-2----2-2--------2-----2----2-2---2-2----2-2----2-2-
A----2------2----2-2---2-2---------------------2------2
E------------------------------------------------------

"She Says You Hurt Her So..."

G------------------------------------------------------
D-------2-22--------0-00-------------------------------
A-------------2-22------------------------------------- (X2)
E-3-33-------------------------------------------------

"She Says She Loves You, And You Know..."

G---------------------------------2-----2--------------
D-2-2----2-2--------2-----2----2-2---2-2----2-2----2-2-
A----2------2----2-2---2-2---------------------2------2
E------------------------------------------------------

"She Loves You, Yea, Yea, Yea..."

G------------------------------
D-2-2----2-2--------2------2---
A----2------2----2-2----2-2----
E------------------------------


"...Love Like That..."

G---------------------
D---------------------
A-----2----2----2-----
E---------------------

"You know it's up to you..."

G------------------------------------------------------
D-------2-22--------0-00-------------------------------
A-------------2-22------------------------------------- (X2)
E-3-33-------------------------------------------------

"She Loves You, Yea, Yea, Yea..."

G------------------------------------------------------
D-2-2----2-2--------2-----2----------------------------
A----2------2----2-2---2-2-----------------------------
E------------------------------------------------------

"...Love like that..."

G-----------------------
D-----------------------
A-----2----2----2-------
E-----------------------

"You know you should be glad..."

G------------------------------------2-----------------
D-----------------------------------2-2----------------
A--------(Nothing)---------------------2---------------
E------------------------------------------------------

"...Love like that..."

G-----------------------
D-----------------------
A-----2----2----2-------
E-----------------------

"You know you should be glad..."

G------------------------------------------------------
D-------------------------------------2----------------
A--------(Nothing)-------------------2-2---------------
E---------------------------------------3--------------

"...Love like that..."

G-----------------------
D-----------------------
A-----2----2----2-------
E-----------------------

"You know you shoouuuld...."

G----------------------------
D----------------------------
A---------------((2))--------
E----------------------------

".......Be......."

G-----------------
D--------2--------
A-----------------
E-----------------

"......Glad!......"
G--------2---------
D------------------
A------------------
E------------------

"...........Yea, Yea, Yea, Yea, Yea, Yea, YEA!!!"

G---------------------------------2-----2--------------
D-2-2----2-2--------2-----2----2-2---2-2---2-----------
A----2------2----2-2---2-2-----------------------------
E------------------------------------------------------


Listen to the song for timing.

(( )) = Left-hand vibrato, or, in Paul's case, Right-hand vibrato!
  development and support by
dmitry ivanov