rock
 
|tablatures   |lyrics   |discussion forums   |more tabs @ XGuitar.com

Beatles tabs

Savoy Truffle guitar chords

From: J. Colden 

The Beatles
White Album
"Savoy Truffle"
written by George Harrison

Intro
E7

verse 1
            E7  
Cream tangerine and montelimar?

F#                    (G)      A    G                               A      B7  
Ginger sling with a pineapple heart   Coffee desert, yes you know it's good news

        E7                                             C7        G 
But you have to have 'em all pulled out after Savoy Truffle    

E7

verse 2
              E7                  
Cool cherry cream, nice apple tart  

F#                              (G)    A       
I feel your taste all the time we're apart

   G                      (A)        B7 
Coconut fudge sure blows down those blues

         E7                                           C7         G
But you have to have em all pulled out after Savoy Truffle

Bridge 1

Em                     A                   
You might not feel it now

              A G         A                   G       B7  
But when the pain cuts through you're gonna know and how

     Em                             A                A G      A      G    B7     
The sweat is gonna fill your head      When it becomes too much you shout aloud



Solo:

  E7
E|---------------------------------|----------------4---5---6---7--
B|-5b7hold-----7r5-----5r3---------|-5------------------------------
G|---------------------------------|--------------------------------
D|---------------------------------|--------------------------------
A|---------------------------------|--------------------------------
E|---------------------------------|--------------------------------
   ^       ^       ^       ^         ^       ^       ^       ^                   

                                      
E|---------------------------------|--------------------------------
B|---------------------------------|--------------------------------
G|---------------------------------|--------------------------------
D|---------------------------------|--------------------------------
A|---------------------------------|--------------------------------
E|---------------------------------|--------------------------------
   ^       ^       ^       ^         ^       ^       ^       ^

   F#
E|---------------------------------|--------------------6---7---8---
B|---------------------------------|----------------------7---8---9-
G|-4b6r4-------4b6r4-------4b6r4---|-2h3p2--------------------------
D|---------------------------------|-------4------------------------
A|---------------------------------|--------------------------------
E|---------------------------------|--------------------------------
   ^       ^       ^       ^         ^       ^       ^       ^                   

   A                                  
E|-/9------------------------------|--------------------------------
B|-/10-----------------------------|--------------------------------
G|---------------------------------|--------------------------------
D|---------------------------------|--------------------------------
A|---------------------------------|--------------------------------
E|---------------------------------|--------------------------------
   ^       ^       ^       ^         ^       ^       ^       ^
   G
E|-----------------7--8--9--8b10r8-|-----------------7---8---9---10-
B|-------------/8------------------|-8---------------8---9---10--11-
G|---------------------------------|--------------------------------
D|---------------------------------|--------------------------------
A|---------------------------------|--------------------------------
E|---------------------------------|--------------------------------
   ^       ^       ^       ^         ^       ^       ^       ^

                                     B7
E|---------------------------------|------------12------------------
B|---------------------------------|------------15b17---------------
G|---------------------------------|--------------------------------
D|---------------------------------|--------------------------------
A|---------------------------------|--------------------------------
E|---------------------------------|--------------------------------
   ^       ^       ^       ^         ^       ^       ^       ^

           E7                                           C7           G        
(Yes) you have to have 'em all pulled out after Savoy Truffle

Bridge 2

     Em                         A                   A G   A        G    B7  
You know that what you eat you are     But what is sweet now turns so  sour

   Em                    A                     A G  A        G   B7 
We all know ob-la-de-bla-da       But can you show me where you are    

 E7  
Cream tangerine and montelimar?

F#                       (G)    A        
Ginger sling with a pineapple heart    

G                            (A)        B7  
Coffee desert, yes you know it's good news

         E7                                            C7        G 
But you have to have 'em all pulled out after Savoy Truffle    

         E7                                            C7        G
Yes you have to have 'em all pulled out after Savoy Truffle


B7=x01202
C7= x32000
A G=x02223
  development and support by
dmitry ivanov