rock
 
|tablatures   |lyrics   |discussion forums   |more tabs @ XGuitar.com

Beatles tabs

Run For Your Life bass tab

RUN FOR YOUR LIFE (Bassline)
                           As recorded by The Beatles
                        (From the 1965 Album RUBBER SOUL)

Words and Music by John Lennon & Paul McCartney
Transcribed by Slowhand (http://www.instantpowertabs.de.vu)

Gtr I (E A D G) - 'Paul McCartney (Bass)'

 Intro
  Q=87(16=s16)
 4/4
  Gtr I
  W          W          E. S S E S E. S S E S
|----------|----------|------------------------|
|----------|----------|------------------------|
|----------|----------|-5--5-------5--5--------|
|----------|----------|------5-5-5------5-5-5--|


                           1st, 2nd & 4th Verses
                        $
  E. S S E S E. S S E S     E. S S E S E. S S E S   E. S S E S E. S S E S
|-----------------------||------------------------|------------------------|
|-----------------------||o-----------------------|------------------------|
|-5--5-------5--5-------||o-5--5-------5--5-------|-2--2-------2--2--------|
|------5-5-5------5-5-5-||-------5-5-5------5-5-5-|------2-2-2------2-2-2--|


                                                  Chorus
  E. S S E S E. S S E S   E. S S E S E. S S E S    E. S S E S E. S S E S
|-----------------------|-----------------------||------------------------|
|-----------------------|-----------------------||------------------------|
|-5--5-------5--5-------|-2--2-------2--2-------||-2--2--------------2----|
|------5-5-5------5-5-5-|------2-2-2------2-2-2-||------2-2-2-0--0-4---4--|


                                                  1.
                                         To Coda
  E. S S E S E. S S E S   E. S S E S E. S S E S    E. S S E S E E E E
|-----------------------|------------------------|---------------------||
|-----------------------|------------------------|---------------------||
|-2--2--------------2---|-2--2-------------------|-2--2-------2-2-3-4--||
|------2-2-2-0--0-4---4-|------2-2-2-3--3-2-2-2--|------2-2-2----------||


  E. S S E S E. S S E S   E. S S E S E. S S E S
|-----------------------|------------------------||
|-----------------------|-----------------------o||
|-5--5-------5--5-------|-5--5-------5--5-------o||
|------5-5-5------5-5-5-|------5-5-5------5-5-5--||


                       Guitar Solo
  2.
  E. S S E S E E E E    E. S S E S E. S S E S   E. S S E S E. S S E S
|--------------------||-----------------------|-----------------------|
|--------------------||-----------------------|-----------------------|
|-2--2-------2-2-3-4-||-5--5-------5--5-------|-5--5-------5--5-------|
|------2-2-2---------||------5-5-5------5-5-5-|------5-5-5------5-5-5-|


  E. S S E S E. S S E S   E. S S E S E. S S E S   E. S S E S E. S S E S
|-----------------------|-----------------------|------------------------|
|-----------------------|-----------------------|------------------------|
|------5-5-5------5-5---|-5--5-------5--5-------|------7-7-7------7-7-7--|
|-3--3-------3--3-----5-|------5-5-5------5-5-5-|-5--5-------5--5--------|


                          3rd Verse
  E. S S E S E. S S E S    E. S S E S E. S S E S   E. S S E S E. S S E S
|-----------------------||-----------------------|------------------------|
|-----------------------||-----------------------|------------------------|
|-5--5-------5--5-------||-5--5-------5--5-------|-2--2-------2--2--------|
|------5-5-5------5-5-5-||------5-5-5------5-5-5-|------2-2-2------2-2-2--|


                                                  Chorus
  E. S S E S E. S S E S   E. S S E S E. S S E S    E. S S E S E. S S E S
|-----------------------|-----------------------||------------------------|
|-----------------------|-----------------------||------------------------|
|-5--5-------5--5-------|-2--2-------2--2-------||-2--2--------------2----|
|------5-5-5------5-5-5-|------2-2-2------2-2-2-||------2-2-2-0--0-4---4--|


  E. S S E S E. S S E S   E. S S E S E. S S E S   E. S S E S E E E E
|-----------------------|-----------------------|--------------------|
|-----------------------|-----------------------|--------------------|
|-2--2--------------2---|-2--2------------------|-2--2-------2-2-3-4-|
|------2-2-2-0--0-4---4-|------2-2-2-3--3-2-2-2-|------2-2-2---------|


                                                   Outro
                                    D.S. al Coda &
  E. S S E S E. S S E S   E. S S E S E. S S E S     E. S S E S E E E E
|-----------------------|------------------------||---------------------|
|-----------------------|------------------------||---------------------|
|-5--5-------5--5-------|-5--5-------5--5--------||-2--2-------2-2-3-4--|
|------5-5-5------5-5-5-|------5-5-5------5-5-5--||------2-2-2----------|


    E. S S E S E. S S E S   E. S S E S E. S S E S
||------------------------|-----------------------|
||o-----------------------|-----------------------|
||o-5--5-------5--5-------|-5--5-------5--5-------|
||-------5-5-5------5-5-5-|------5-5-5------5-5-5-|


  E. S S E S E. S S E S   E. S S E S E. S S E S   E. S S E S E. S S E S
|-----------------------|-----------------------|-------------------------||
|-----------------------|-----------------------|------------------------o||
|-5--5-------5--5-------|-5--5-------5--5-------|-5--5-------5--5--------o||
|------5-5-5------5-5-5-|------5-5-5------5-5-5-|------5-5-5------5-5-5---||
  development and support by
dmitry ivanov