rock
 
|tablatures   |lyrics   |discussion forums   |more tabs @ XGuitar.com

Beatles tabs

Roll Over Beethoven bass tab

ROLL OVER BEETHOVEN (Bassline)
                           As recorded by The Beatles
                     (From the 1963 Album WITH THE BEATLES)

Words and Music by Chuck Berry

Gtr I (E A D G) - 'Bass'

 Intro
  Q=160
 4/4
  Gtr I
  Wx5           E E E E E E E E   E E E E E E E E
|------------||-----------------|-----------------|
|------------||-5-5-----5-5-7-7-|-5-5-------------|
|------------||-----7-7---------|-----7-7-5-5---5-|
|------------||-----------------|-------------7---|


  E E E E E E E E   E E E E E E E E   E E E E E E E E
|-----------------|-----------------|-----------------|
|-----4-4-7-7-4-7-|-----4-4-7-7-4-7-|-5-5-------------|
|-5-5-------------|-5-5-------------|---------5-5---5-|
|-----------------|-----------------|-----7-7-----7---|


                                                      $
  E E E E E E E E   E E E E E E E E   E E E E E E E E
|-----------------|-----------------|-----------------|
|-----------------|-----4-4-7-7-4-5-|-7-7-------------|
|-----4-4-7-7-4-7-|-5-5-------------|---------4-4-7-7-|
|-5-5-------------|-----------------|-----5-5---------|


   Verse
    E E E E E E E E   Q  E E Q  E E   Q  E E Q  E E
||------------------|---------------|----------------|
||o-----4-4-7-7-4-7-|-5--5----------|------4-7--4-7--|
||o-5-5-------------|--------5----5-|-5--------------|
||------------------|------7----7---|----------------|


  Q  E E Q  E E   Q  E E Q  E E   E E Q  Q  E E
|---------------|---------------|---------------|
|------4-7----4-|-5--5----------|---5-----------|
|-5--5------7---|--------5----5-|--------5----5-|
|---------------|------7----7---|-----7-----7---|


  E E E E E E E E   E E E E E E E E
|-----------------|-------------------|
|-----4-4-7-7-4-7-|-----4-4-7-7-4-7---|
|-5-5-------------|-5-5---------------|
|-----------------|-------------------|


                                   1.,2.,4.
                        To Coda
  E E E E Q E E   E E E E Q  E E   E E E E Q  E E   Q  E E Q  E E
|---------------|----------------|----------------|----------------||
|-5-5-----------|----------------|-----4-4-7--4-7-|-7-------------o||
|---------5---5-|-----4-4-7--4-7-|-5-5------------|-------------4-o||
|-----7-7---7---|-5-5------------|----------------|------5-5--7----||


                                   Bridge
  3.
  Q  E E Q  E E   E E E E E E E E   E E E E E E E E
|---------------|-----------------|-----------------|
|------4-7--4-7-|-7-7---7-7-------|-----------------|
|-5-------------|---------------4-|-5-5-5-5-5-5-5-5-|
|---------------|-----------5-7---|-----------------|


  E E E E E E E E   Q  E E E E E E   E E E E E E E E
|-----------------|----------------|------------------|
|-----------7-5-4-|----------------|-----------7-5-4--|
|-5-5-5-5-5-------|-5--5-5-5-5-5-5-|-5-5-5-5-5--------|
|-----------------|----------------|------------------|


  Q  E E Q  E E   Q  E E E E E E   Q  E E Q  E E
|---------------|----------------|---------------|
|-5--5-5-5--5-5-|-5--5-5-5-7-5-4-|---------------|
|---------------|----------------|-5--5-5-5--5-5-|
|---------------|----------------|---------------|


  Q  E E Q  E E   Q  E E E E E E   E E E E Q  Q
|---------------|----------------|----------------|
|-------------7-|-5--5-5-5-5-5-5-|-7-7-7-7-7--7---|
|-5--5-5-5--5---|----------------|----------------|
|---------------|----------------|----------------|


                                     Guitar Solo
  E E E E E E E E   E E E E Q   Q     Q.   E Q  E E
|-----------------|----------------||---------------|
|-----------------|------------/7--||------4-7--4-7-|
|-5-5-5-5-5-5-5-5-|-5--------------||-5-------------|
|-----------------|---5-5-5-5------||---------------|


  Q.   E Q  E E   E E E E E E E E   E E E E E E E E
|---------------|-----------------|------------------|
|-5-------------|-----4-4-7-7-4-7-|-----4-4-7-7-4-7--|
|--------5----5-|-5-5-------------|-5-5--------------|
|------7----7---|-----------------|------------------|


  E E E E E E E E   E E E E E E E E   E E E E E E E E   E E E E E E E E
|-----------------|-----------------|-----------------|-----------------|
|-5-5-5-----------|-5-5-5-----------|-------4-7-7-4-7-|-------4-7-7-4-7-|
|---------5-5---5-|---------5-5---5-|-5-5-5-----------|-5-5-5-----------|
|-------7-----7---|-------7-----7---|-----------------|-----------------|


                                                                          D.S.
  E E E E E E E E   E E E E E E E E   E E E E E E E E   E E E E E E E E
|-----------------|-----------------|-----------------|------------------------||
|-5-5-5-----------|-----7-----------|-------4-7-7-4-7-|---------4-4-5-7--------||
|---------5-5---5-|---------7-7-4-7-|-5-5-5-----------|-----5-5----------------||
|-------7-----7---|-5-5---5---------|-----------------|-5-5--------------------||


                                Out-Chorus
  &
  Q  E E Q  Q    E E Q  Q  Q     E E E E Q  E E
|--------------|--------------||----------------|
|------4-5--6--|-----7-----7--||-----4-4-7--5-4-|
|-5--5---------|--------------||-5-5------------|
|--------------|-5-5----5-----||----------------|


  E E E E E E E E   E E E E Q  E E   E E E E E E E E
|-----------------|----------------|------------------|
|-----4-4-7-7-4-4-|-----4-4-7--5-4-|------------------|
|-5-5-------------|-5-5------------|-5-5-3-3-2-2------|
|-----------------|----------------|-------------5-5--|


  E E E E E E E E   E E E E E E E E   E E E E Q  E E
|-----------------|-----------------|----------------|
|-----------------|-----------------|-----4-4-7--5-4-|
|-----2-2-5-5-3-2-|-----2-2-5-5-3-2-|-5-5------------|
|-3-3-------------|-3-3-------------|----------------|


  E E E E E E E E   E E E E E E E E
|-----------------|-------------------||
|-----4-4-7-4-5-4-|-7-7-7-7-7-7-7-7---||
|-5-5-------------|-------------------||
|-----------------|-------------------||


 2/4       4/4
  E E E E   E E Q  E E E E   E E E E Q  Q    +W
|---------|----------------|---------------|--------*|
|-7-7-7-7-|---4-4--5-4-5-6-|-7-------------|--------*|
|---------|-5--------------|-----4-5----5--|-(5)----*|
|---------|----------------|---5-----------|--------*|
  development and support by
dmitry ivanov