rock
 
|tablatures   |lyrics   |discussion forums   |more tabs @ XGuitar.com

Beatles tabs

Ps I Love You bass tab

Song: P.S. I Love You
Artist: Beatles
Album: Beatles 1962-1970
Tabbed By: Kenny Borders (Spankielnc@aol.com)

G-----------------------|---------------------|---------------------
D---5--5-----------7----|-5--5-----------7----|-5--5-----------7----
A--------4--4-5--5----5-|------4--4-5--5----5-|------4--4-5--5------
E-----------------------|---------------------|-------------------5-

G-------------|-----------|
D--------7----|------7----|
A---5--5------|-5--5------|
E-----------5-|---------5-|

G-------------|-----------|-----------|-----------|----------|-----------|
D--------7----|------9----|------7----|-7--7----7-|9--9----9-|-7--7----7-|
A---5--5----5-|-7--7----7-|-5--5----5-|------7----|-----9----|------7----|
E-------------|-----------|-----------|-----------|----------|-----------|

G------------------------|-----------------------|
D---8--8-------8--8------|------7------------7---|
A---------8-8------------|-5--5---------5--5-----|
E--------------------6-8-|--------5-7----------5-|

G-------------|-----------|-----------|-----------|----------|-----------|
D--------7----|------9----|------7----|-7--7----7-|9--9----9-|-7--7----7-|
A---5--5----5-|-7--7----7-|-5--5----5-|------7----|-----9----|------7----|
E-------------|-----------|-----------|-----------|----------|-----------|

G------------------------|-----------------------|
D---8--8-------8--8------|------7------------7---|
A---------8-8------------|-5--5---------5--5-----|
E--------------------6-8-|--------5-7----------5-|

G-----------------------|---------------------|---------------------
D---5--5-----------7----|-5--5-----------7----|-5--5-----------7----
A--------4--4-5--5----5-|------4--4-5--5----5-|------4--4-5--5------
E-----------------------|---------------------|-------------------5-

G-------------|-----------|
D--------7----|------7----|
A---5--5------|-5--5------|
E-----------5-|---------5-|

G-------------|-----------|-----------|-----------|----------|-----------|
D--------7----|------9----|------7----|-7--7----7-|9--9----9-|-7--7----7-|
A---5--5----5-|-7--7----7-|-5--5----5-|------7----|-----9----|------7----|
E-------------|-----------|-----------|-----------|----------|-----------|

G------------------------|-----------------------|
D---8--8-------8--8------|------7------------7---|
A---------8-8------------|-5--5---------5--5-----|
E--------------------6-8-|--------5-7----------5-|

G-----------------------|---------------------|---------------------
D---5--5-----------7----|-5--5-----------7----|-5--5-----------7----
A--------4--4-5--5----5-|------4--4-5--5----5-|------4--4-5--5------
E-----------------------|---------------------|-------------------5-

G-------------|-----------|
D--------7----|------7----|
A---5--5------|-5--5------|
E-----------5-|---------5-|

G-------------|-----------|-----------|-----------|----------|-----------|
D--------7----|------9----|------7----|-7--7----7-|9--9----9-|-7--7----7-|
A---5--5----5-|-7--7----7-|-5--5----5-|------7----|-----9----|------7----|
E-------------|-----------|-----------|-----------|----------|-----------|

G------------------------|----------------------------------------------------
D---8--8-------8--8------|------7----------8--------7----------8--------7-----
A---------8-8------------|-5--5-------5--5---8-5--5-------5--5---8-5--5-------
E--------------------6-8-|--------5-7-----------------5-7-----------------5-7-

G-------------------|
D-------8-----5-5---|
A---5-5---8-5-----5-|
E-------------------|
  development and support by
dmitry ivanov