rock
 
|tablatures   |lyrics   |discussion forums   |more tabs @ XGuitar.com

Beatles tabs

Polythene Pam bass tab

POLYTHENE PAM (Bassline)
                           As recorded by The Beatles
                        (From the 1969 Album ABBEY ROAD)

Words and Music by Lennon-McCartney

Gtr I (E A D G) - 'Bass'

 Intro
  Q=155
 4/4
  Gtr I
  W          E E Q  E Q.    W          E E Q  H
|----------|--------------|----------|-------------|
|----------|--------------|----------|-------------|
|----------|---7-7--7s3s==|=7--------|---7-7--7----|
|----------|--------------|----------|-------------|


   Verses I & II
    H    Q.   E   +E  E Q  E E Q     H    Q.   E   +E  E Q  E E Q
||--------------|------------------|-------------|------------------|
||o-------------|------------------|-------------|------------------|
||o-5---------7-|-(7)-7-7--7---7\--|-5---------7-|-(7)-7-7--7---7\--|
||-------5------|------------------|------5------|------------------|


  Q.   E E E E E   E E Q  Q  Q     H    Q.   E   +E  E Q  Q  Q
|----------------|---------------|-------------|------------------|
|-5----5-----7s9-|-9-9-9--9------|-------------|------------------|
|----------5-----|---------------|-3----5----7-|-(7)-7-7--7-------|
|----------------|-----------7\--|-------------|-------------7\---|


  H    Q.   E   +E  E Q  Q  E E   W          E E Q  E Q.
|-------------|-----------------|----------|----------------|
|-------------|-----------------|----------|----------------|
|-3----5----7-|-(7)-7-7--7--7s3s|=7--------|---7-7--7s3s====|
|-------------|-----------------|----------|----------------|


                    1.
   Q   +Q    H      E E Q  E E Q
|-----------------|-----------------||
|-----------------|----------------o||
|-19--(19)\-------|---7-7--7---7\--o||
|-----------------|-----------------||


                  Guitar Solo
  2.
  E E Q  E E Q     H    Q.   E   E E Q  Q  Q
|----------------|-------------|-----------------|
|----------------|-------------|-----------------|
|---7-7--7---7\--|-5---------5h|=7-7-7--7--7\----|
|----------------|------5------|-----------------|


  H    Q.   E   E E Q  Q  Q     H    Q.   E   E E Q  Q  Q
|-------------|---------------|-------------|----------------|
|-------------|---------------|-------------|----------------|
|-5---------5h|=7-7-7--7--7\--|-5---------5h|=7-7-7--7--7\---|
|------5------|---------------|------5------|----------------|


                                          ~~
  H    Q.   E   E E Q  Q  Q     H    Q.   E   E E Q  Q  Q
|-------------|---------------|-------------|----------------|
|-------------|---------------|-------------|----------------|
|-5---------5h|=7-7-7--7--7\--|-5---------5h|=7-7-7--7--7\---|
|------5------|---------------|------5------|----------------|


  H    Q.   E   E E Q  Q  Q     H    Q.   E   E E Q  Q  Q
|-------------|---------------|-------------|----------------|
|-------------|---------------|-------------|----------------|
|-5---------5h|=7-7-7--7--7\--|-5---------5h|=7-7-7--7--7\---|
|------5------|---------------|------5------|----------------|


  H    Q.   E   E E Q  Q  Q     H    Q.   E   E E Q  E E E E
|-------------|---------------|-------------|-----------------|
|-------------|---------------|-------------|-----------------|
|-5---------5h|=7-7-7--7--7\--|-5---------5h|=7-7-7--7---5-6--|
|------5------|---------------|------5------|----------7------|


 Outro
  E E E E E E E E   E E E Q  E E E   E E E Q  E E E   E E E Q  E E E
|-----------------|----------------|----------------|-----------------*|
|-----------------|----------------|----------------|-----------------*|
|-7-7-7-7-7-7-7-7-|-5-5-5-5--5-5-5-|-4-4-4-4--4-4-4-|-2-2-2-2--2-2-2--*|
|-----------------|----------------|----------------|-----------------*|
  development and support by
dmitry ivanov