rock
 
|tablatures   |lyrics   |discussion forums   |more tabs @ XGuitar.com

Beatles tabs

Please Please Me bass tab

Bass Tab
Song Title: Please Please Me
Artist: Beatles
Tuning: Standard
---------------------------------------------
From the Album:  Please Please Me 1963
Tabbed by David Connor <homers@arcos.org>

Listen to Song for timing

Intro (behind harmonica):
G|--------------------------------------------------------------------
D|--------------------------------------------------------------------
A|-----7--7-7-7-7-7-7-7-7-7-7-7-7-----7-7-7-7-7-7-7-7-7-7-7-7-7-7-----
E|-7------------------------------5-7-----------------------------5-7-

Verse 1:
G|--------------------------------------------------------------------
D|---------------------------------7-7-7-7------------5-5-7-7-9-9-----
A|-7-7-7-7-7-7-7-7-7-7-7-7-7-7-7-7---------7-7-7-7--7-----------------
E|--------------------------------------------------------------------

G|--------------------------------------------------------------------
D|---------------------------------7-7-7-7----------------------------
A|-7-7-7-7-7-7-7-7-7-7-7-7-7-7-7-7---------7-7-7-7--7-----------------
E|--------------------------------------------------------------------

Chorus:
G|--------------------------------------------------------------------
D|---7------------------------------------------------6---6-----------
A|-----------7------7-8-9-----------9-10-11-------------7-------7-----
E|----------------------------7----------------7----------------------

G|--------------------------------------------------------------------
D|---7--------------------7-7-7-7-9-9-9-9-----------------------------
A|--------7-7-7-7-7-7-7-7---------------------------------------------
E|--------------------------------------------------------------------

G|-----------------------------------
D|-----6-6-9-9-6---7-7-7-7-9-9-9-9---
A|-7-7-----------7-------------------
E|-----------------------------------

Verse 2:

Chorus:  Play Chorus

Middle:
G|--------------------------------------------------------------------------------
D|----7----------------------------------9-------7------6---------------6-9-9-6-9-
A|------------9------7------------------------------------------9---7-7-----------
E|---------------------------9----------------------------------------------------

G|-------------------
D|----6-9-9-6-9------
A|7-7-----------7----
E|------------------- 

G|-------------------------------------------------------------------------------
D|----7----------------------------------9-------7------6--------------6-9-9-6-9-
A|------------9------7------------------------------------------9--7-7-----------
E|---------------------------9---------------------------------------------------

G|---------------------------------------------------------------------
D|------6-9-9-6-9---7-7-7-7-9-9-9-9-------6-9-9-6-9---7-7-7-7-9-9-9-9--
A|--7-7-----------7-------------------7-7-----------7------------------
E|---------------------------------------------------------------------

Verse 3:

Chorus:  Play Chorus

Outro:
G|-----------------------------------------------------------------
D|-----------------7-7-7-7-9-9-9-9-----------------7-7-7-7-9-9-9-9-
A|-7-7-7-7-7-7-7-7-----------------7-7-7-7-7-7-7-7-----------------
E|-----------------------------------------------------------------

G|------------------
D|------5-----------
A|--7---------------
E|----------8---7---

------------------------------------------
Any comments, corrections or requests for 
beatles chords, tabs and btabs send
them to David Connor at <homers@arcos.org>



Submitted by:  David Connor (homers@arcos.org)
  development and support by
dmitry ivanov