rock
 
|tablatures   |lyrics   |discussion forums   |more tabs @ XGuitar.com

Beatles tabs

Piggies bass tab

PIGGIES (Bassline)
                           As recorded by The Beatles
               (From the 1968 Album THE BEATLES (THE WHITE ALBUM))

Words and Music by George Harrison

Gtr I (E A D G) - 'Bass'
Gtr II (E A D G) - 'Contra Bass'

 Intro                  1st Verse
  Q=100
                         Ab     Eb       Ab     Eb
 4/4
  Gtr I
  W          W           E E Q  E E Q    E E Q  E E Q
|----------|----------||---------------|----------------|
|----------|----------||-6-------------|-6--------------|
|----------|----------||--------6------|--------6-------|
|----------|----------||---------------|----------------|
|
| Gtr II
| W          W           W               W
|----------|----------||---------------|----------------|
|----------|----------||---------------|----------------|
|----------|----------||---------------|----------------|
|----------|----------||---------------|----------------|


  Ab     Eb       Fm     Bb7      Fm     Bb7      Ab
  E E Q  E E Q    E E Q  E E Q    E E Q  E E Q    W
|---------------|---------------|---------------|------||
|-6-------------|--------8------|--------8------|------||
|--------6------|-8-------------|-8-------------|-6----||
|---------------|---------------|---------------|------||
|
| W               W               W               W
|---------------|---------------|---------------|------||
|---------------|---------------|---------------|------||
|---------------|---------------|---------------|------||
|---------------|---------------|---------------|------||


  Ab     Eb       Ab     Eb
  E E Q  E E Q    E E Q  E E Q
|---------------|---------------|
|-6-------------|-6-------------|
|--------6------|--------6------|
|---------------|---------------|
|
| Gtr II
| H      H        H      H
|---------------|---------------|
|-6-------------|-6-------------|
|--------6------|--------6------|
|---------------|---------------|


 2nd Verse
  Ab     Eb       Ab     Eb
  E E Q  E E Q    E E Q  E E Q
|---------------|---------------|
|-6-------------|-6-------------|
|--------6------|--------6------|
|---------------|---------------|
|
| H      H        H      H
|---------------|---------------|
|-6-------------|-6-------------|
|--------6------|--------6------|
|---------------|---------------|


  Ab     Eb       Fm     Bb7      Fm     Bb7      Ab
  E E Q  E E Q    E E Q  E E Q    E E Q  E E Q    W
|---------------|---------------|---------------|--------------||
|-6-------------|--------8------|--------8------|--------------||
|--------6------|-8-------------|-8-------------|-6------------||
|---------------|---------------|---------------|--------------||
|
| H      H        H      H        H      H        Q  Q  Q  Q
|---------------|---------------|---------------|--------------||
|-6-------------|---------------|---------------|--------------||
|--------6------|-8-------------|-8-------------|--------------||
|---------------|--------6------|--------6------|----1--2--3---||


  Ab      Eb       Ab
  E E Q   E E Q    E E Q       E E Q
|----------------|--------------------||
|-6--------------|-6------------------||
|---------6------|-------------3------||
|----------------|--------------------||
|
| E E E E Q   Q    E E S S S S H
|----------------|--------------------||
|----------------|--------------------||
|-----3-4-6------|-----3-4-5-6-7------||
|-4-6------------|-4-6----------------||


 Bridge
  Bbm     C7        Db      Ab/Eb     Eb
  E E E E E E E E   E E E E E E E E   E E E E E E E E   E E E E   E   E   E E
|-----------------|-----------------|-----------------|-----------------------|
|-----------------|-----------------|-----------------|-8---8-----------------|
|-1---1---3---3---|-4---4---6---6---|-6---6---6---6---|-----------6-------6---|
|-----------------|-----------------|-----------------|-----------------------|
|
| E E E E E E E E   E E E E E E E E   E E E E E E E E   E E E S S S S S S E E
|-----------------|-----------------|-----------------|-----------------------|
|-----------------|-----------------|-----------------|-----------------------|
|-1-1-1-1-3-3-3-3-|-4-4-4-4---------|-6-6-6-6-6-6-6-6-|-------------4---------|
|-----------------|---------4-4-4-4-|-----------------|---3-4-5-6-------6-4-3-|


  Bbm     C7        Db      Eb
  E E E E E E E E   E E E E E E E E   E E E E E E E E
|-----------------|-----------------|-----------------||
|-----------------|-----------------|-----------------||
|-1---1---3---3---|-4---4---6---6---|-6---6---6---6---||
|-----------------|-----------------|-----------------||
|
| E E E E E E E E   E E E E E E E E   E E E E E E E E
|-----------------|-----------------|---------5-6-8---||
|-----------------|-----------------|---5-6-8---------||
|-1-1-1-1-3-3-3-3-|-4-4-4-4-6-6-6-6-|-6-------------6-||
|-----------------|-----------------|-----------------||


  Ab     Eb       Ab      Eb                Ab     Eb       Fm      Bb7
  H      H        H       H                 H      H        H       H
|---------------|-------------------------|---------------|-----------------|
|-6-------------|-6-----------------------|-6-------------|---------8-------|
|--------6------|---------6---------------|--------6------|-8---------------|
|---------------|-------------------------|---------------|-----------------|
|
| Q.   E Q.   E   E E E E S S S S S S S S   Q.   E Q.   E   E E E E E E Q
|---------------|-----5-------------------|---------------|-----------------|
|-------------5-|-6-8---6-------3---------|-------------5-|-6-5-3-----------|
|------3-6------|---------6-5-6---6-4-3-1-|-3------6------|-------6-5-3-----|
|-4-------------|-------------------------|------4--------|-------------6---|


  Fm      Bb7    Eb            Ab     Eb       Ab     Eb
  H       H      W             E E Q  E E Q    E E Q  E E Q
|--------------|-------------|---------------|------------------||
|---------8----|-------------|-6-------------|-6----------------||
|-8------------|-6-----------|--------6------|--------6---------||
|--------------|-------------|---------------|------------------||
|
| E E E E H      Q  Q  Q  Q    H      H        Q   Q  Q   S S E
|--------------|-------------|---------------|-----5------------||
|--------------|-------------|---------------|-6----------------||
|---------1----|-------------|--------6------|--------6---6-5-6-||
|-1-3-4-1------|----1--2--3--|-4-------------|------------------||


 3rd Verse
  Ab     Eb       Ab     Eb       Ab     Eb       Fm     Bb7
  E E Q  E E Q    E E Q  E E Q    E E Q  E E Q    E E Q  E E Q
|---------------|---------------|---------------|----------------|
|-6-------------|-6-------------|-6-------------|--------8-------|
|--------6------|--------6------|--------6------|-8--------------|
|---------------|---------------|---------------|----------------|
|
| H      H        H      H        H      H        H      H
|---------------|---------------|---------------|----------------|
|-6-------------|-6-------------|-6-------------|----------------|
|--------6------|--------6------|--------6------|-8--------------|
|---------------|---------------|---------------|--------6-------|


  Fm     Bb7      Eb
  E E Q  E E Q    W
|---------------|-------------||
|--------8------|-------------||
|-8-------------|-6-----------||
|---------------|-------------||
|
| H      H        Q  Q  Q  Q
|---------------|-------------||
|---------------|-------------||
|-8-------------|-------------||
|--------6------|----1--2--3--||


 Outro
  Ab     Eb       Ab     Eb       Ab     Eb       Fm     Bb7
  E E Q  E E Q    E E Q  E E Q    E E Q  E E Q    E E Q  H
|---------------|---------------|---------------|-------------|
|-6-------------|-6-------------|-6-------------|-8-----------|
|--------6------|--------6------|--------6------|--------6----|
|---------------|---------------|---------------|-------------|
|
| H      H        H      H        H      H        H      H
|---------------|---------------|---------------|-------------|
|---------------|-6-------------|-6-------------|-------------|
|--------6------|--------6------|--------6------|--------6----|
|-4-------------|---------------|---------------|-6-----------|


  Eb          A          E
 3/4         4/4
  Gtr II
  E E Q  Q    W          H.      Q
|-----------|----------|------------*|
|-----------|----------|------------*|
|-6---------|-5--------|-7----------*|
|-----------|----------|------------*|
  development and support by
dmitry ivanov