rock
 
|tablatures   |lyrics   |discussion forums   |more tabs @ XGuitar.com

Beatles tabs

Oh! Darling bass tab

Title        : Oh Darling!
Artist       : The Beatles
Album        : Abbey Road
Tabbed By    : Ken Robertson
-----------------------------------------------------------------------------------------------


G-------------------------------------------------------------------
D------4-----------------------4-7-4---------4-7--4------4------6\4-
A--------7--4-5-6-7--4-2--4-2-----------4-5------------------7------
E---5---------------------------------5-------------5-7----7--------


G---------------------------------------------------|
D------4----------------------------4-7-7-7-7-6-4---|
A----------7------------4-5-5-5-5-7---------------7-|
E---7----7----5-5-5-5-7-----------------------------|


G---------------------6-4----4--------6-------------------------------
D------4-------------------6---4-4--7----7-4------4-7--4-7-4----------
A--------7--4-5-6--7-------------------------7-5------------------9-7-
E---5--------------------------------------------------------7--7-----


G---------------------4--------------------------------------------------
D-------------------6----------------------------------------------------
A---9------9---7--7----------------4-5-5-5-5-7-----------2-3-4-4-4-4-2-4-
E-----7--7---7-----------5-5-5-5-7-------------2-5-5-5-5-----------------


G---------------------------------------------------------------------
D-----------------------------------3-----------------7-------------4-
A---5--5--5-5-5-5-6-7-8--8--------3---3------------------9-9-7---4-7--
E-------------------------8-1--1----------5--6-6-7-7-8---------5------


G------------------------------------------------------|
D---------6-9--------6-9----------6h9----------7h10----|
A-----6-9--------6-9------7-7-7-7------8-8-8-8-------7-|
E---7----------7---------------------------------------|


G--------------------6-4-------------6----------------4---------------------
D------4------------------------4--7----4-3-2----4-7----7-4----4------6-----
A--------7--4-5-6-7---------------------------5--------------------7----4---
E---5---------------------4-4-4-----------------------------7----7--------7-


G----------4----------------------------------4-5-6-6-6-6-6-6-
D---4-------------------------------4-7-7-7-7-----------------
A-------7---------------4-5-5-5-5-7---------------------------
E-----7-------5-5-5-5-7---------------------------------------


G-----------------------------------------------------------------------------
D-----------------------7------5-5-------------------------7--------6-9---6-9-
A---5--5--5-5--5-6-7-8----8--8--------2-3-4----2-4-2-5-4-7------6-9-----9-----
E-----------------------------------5--------5----------------7---------------


G--------------------------------------------------|
D----------------9-------------------------3---3---|
A-----6-9---9-11--------------7--------0-3---5---7-|
E---7-----7---------7-7-7-0-4----1-1-1-------------|


G-------------------6-4-------------------------------------------------------
D-----4------------------6-6-6--------4---------6-9--6-9-6------2--6----4---2-
A-------7--4-5-6-7------------------4----4-4-5-------------2--2------2----2---
E---5--------------------------2--2-------------------------------------------


G---1-4----------------------------------|
D----------------------------------------|
A------------------4-5-5-5-5--5-7--------|
E--------5-5-5-5-7----------------5--6-5-|
  development and support by
dmitry ivanov