rock
 
|tablatures   |lyrics   |discussion forums   |more tabs @ XGuitar.com

Beatles tabs

Nowhere Man bass tab

Bass Tab
Song Title: Nowhere Man
Artist: Beatles
Tuning: Standard
---------------------------------------------
From the Album:  Rubber Soul 1965
Tabbed by David Connor <<mailto:homers@arcos.org>dconnor@idirect.ca>
Mayfield S.S.
 
You must listen to the song for timing.  The words are kind of in time.
The words are not exactly in time.  So listen to the song.
 
I pretty sure i got most of this right.  There are so many small changes it's
hard to keep 
track of them all so i did my best to transcribe it.
 
Intro:
------
 
G|-------------------------------------------------------------
D|-------------------------------------------------------------
A|-----------------   Nothing   -------------------------------
E|-------------------------------------------------------------
 
G|---------------------------------------------------------------
D|--7--7-6-6-4-----7--7-6-6-4-----------6-6-7-8-9------6-6-7-8-9-
A|-------------7-4------------7-4--7--7-----------7--7-----------
E|---------------------------------------------------------------
 
Verse 1:
--------
 
G|-------------------------------------------------------6-----
D|-------4-4-5-6-7-------------6-7-7-6-6-----------6-6-9---9---
A|--7--7---------------6-6-9-9-----------9-7---7-7-------------
E|-----------------7-7-----------------------7-----------------
 
G|-------------------------------------------------------------
D|--7--7-6-6-4-----7--7-6-4----------6-6-7-8-9-----------------
A|-------------7-4----------7-4--7-7-----------7--7--7-7-7-----
E|-------------------------------------------------------------
 
Chorus 1:
---------
 
G|----------------------------------------------------------------------------
D|--6-6-----6-6----------7-7------7-7-----------6-6----6-6-------7-7-----7--7-
A|------6-6-----6--6----------7-7-----7-------------6-6-----6--------7-7------
E|----------------------------------------------------------------------------
 
G|------------------------------------------------------------
D|-----6-6-----6-6--------4-------------4-------------6-------
A|--6------6-6------6---4---7---4-7---4---7---4-7---6---9-----
E|--------------------5-------------5-------------7-------7-7-
 
Solo (Same as Verse):
---------------------
 
G|-------------------------------------------------------6-----
D|-------4-4-5-6-7-------------6-7-7-6-6-----------6-6-9---9---
A|--7--7---------------6-6-9-9-----------9-7---7-7-------------
E|-----------------7-7-----------------------7-----------------
    
G|-------------------------------------------------------------
D|--7--7-6-6-4-----7--7-6-4----------6-6-7-8-9-----------------
A|-------------7-4----------7-4--7-7-----------7--7--7-7-7-----
E|-------------------------------------------------------------
    
Verse 2:
--------
 
Same tab as Verse 1 w/
 
Chorus 2:
---------
 
Same tab as Chorus 1 w/
 
Nowhere man don't worry
 
Verse 3:
--------
 
Repeat Verse 1
 
Chorus 3:
---------
 
Repeat Chorus 1
 
Ending:
-------
 
G|-------------------------------------------------------6-----
D|-------4-4-5-6-7-------------6-7-7-6-6-----------6-6-9---9---
A|--7--7---------------6-6-9-9-----------9-7---7-7-------------
E|-----------------7-7-----------------------7-----------------
 
G|---------------------------------------------------------------
D|--7--7-6-6-4-----7--7-6-6-4---------------4-7--4-7-------------
A|-------------7-4------------7-4--7--7-7-7----------7--7-7-7-7--
E|---------------------------------------------------------------
 
G|---------------------------------------------------------------
D|--7--7-6-6-4-----7--7-6-6-4------------------------------------
A|-------------7-4------------7-4--7--7--7--7---7-7-7-7-7-7-7-7--
E|---------------------------------------------------------------
 
G|---------------------------------------------------------------
D|--7--7-6-6-4-----7--7-6-6-4-----------------4-7-4--------------
A|-------------7-4------------7-4--7--7--7--7-------7------------
E|---------------------------------------------------------------
 

Not a really hard song but it takes a while to get used to the timing.
 
------------------------------------------
Any comments, corrections send
them to David Connor at <dconnor@idirect.ca>
  development and support by
dmitry ivanov