rock
 
|tablatures   |lyrics   |discussion forums   |more tabs @ XGuitar.com

Beatles tabs

Lovely Rita bass tab

beatles/lovely_rita.btab

Basstab by Jan Bjorklund, Finland;
jani_bjorklund@yahoo.se
You are welcome to request for basstabs!
Bienvenidos a pedirme transcripciones para el bajo!
Be shure to use a monospaced font!

TablEdited by Jan Bjorklund for Nathaniel
Tuning : E A D G 	Time Signature: 4/4

 tempo 88|       |       |        |       |       |       |
|--------------------------------|--------------------------------|
|8-------------------------------|6-------------------------------|
|--------------------------------|--------------------------------|
|--------------------------------|--------------------------------|

 |       |       |       |        |       |       |       |
|--------------------------------|--------------------------------|
|--------------------------------|8-------------------------------|
|6-------------------------------|--------------------------------|
|--------------------------------|--------------------------------|

 |       |       |       |        |       |       |       |
|----7-------10/7----10------10--|----5-------8/5-----5-------8---|
|8-------8-------8-------8-------|6-------6-------6-------6-------|
|--------------------------------|--------------------------------|
|--------------------------------|--------------------------------|

 |       |       |       |        |       |       |       |
|--------------------------------|--------------------------------|
|----5-------8/6---------5---6---|8---8---8---8---8---8---8---7---|
|6-------6-------6---6-----------|--------------------------------|
|--------------------------------|--------------------------------|

 |       |       |       |        |       |       |       |
|--------------------------------|--------------------------------|
|------------------------6-------|--------------------------------|
|6-------6-------4-----------6---|6---6---5---------------5-------|
|--------------------------------|------------8---6---8-------6---|

 |       |       |       |        |       |       |       |
|--------------------------------|--------------------------------|
|--------------------------------|8---8-----------8---8---6-------|
|----5---6-------8---6---5-------|--------6---8---------------8---|
|8-----------8---------------8---|--------------------------------|

 |       |       |       |        |       |       |       |
|--------------------------------|--------------------------------|
|--------------------------------|--------------------------------|
|6---4---3-----------3---6---3---|4---2---1-----------1---4---1---|
|------------6---4---------------|------------4---2---------------|

 |       |       |       |        |       |       |       |
|--------------------------------|--------------------------------|
|--------5---6---8---8---8---8---|--------------------------------|
|6---6---------------------------|6---4-------------------6-------|
|--------------------------------|--------8---6---4---8-------8---|

 |       |       |       |        |       |       |       |
|--------------------------------|--------------------------------|
|----3---6---3---4---------------|--------5---6---8-------8-------|
|4-------------------6---4-------|6---6---------------8-------8---|
|----------------------------6---|--------------------------------|

 |       |       |       |        |       |       |       |
|--------------------------------|----3-------3-------------------|
|------------------------8---8---|--------------------6---6-------|
|6---6-----------8---8-----------|6-------6-------4-----------6---|
|--------8---8-------------------|--------------------------------|

 |       |       |       |        |       |       |       |
|--------------------------------|--------------------------------|
|--------5---6---8-------8-------|--------------------------------|
|6---6---------------8-------8---|----5---6-------8---6---5-------|
|--------------------------------|8-----------8---------------8---|

 |       |       |       |        |       |       |       |
|--------------------------------|--------------------------------|
|8---8-----------8---8---8-------|8---8---8---8---8-------8-------|
|------------8---------------8---|----------------------------8---|
|--------10----------------------|--------------------------------|

 |       |       |       |        |       |       |       |
|--------------------------------|--------------------------------|
|8---8---8---8---8-------8-------|8-------------------------------|
|----------------------------8---|--------------------------------|
|--------------------------------|--------------------------------|

 |       |       |       |        |       |       |       |
|------------3-------------------|--------------------------------|
|--------------------6---6-------|----5---6---7---8---5-----------|
|6---6---6-------4-----------6---|6-----------------------8---5---|
|--------------------------------|--------------------------------|

 |       |       |       |        |       |       |       |
|--------------------------------|--------------------------------|
|----------------3---------------|8-------8-------8-------6/8-----|
|3---5---6---3-------6---5---3---|----8-------8-------8-------8---|
|--------------------------------|--------------------------------|

 |       |       |       |        |       |       |       |
|--------------------------------|--------------------------------|
|--------------------------------|--------------------------------|
|6---6---5-3---------3---6---3---|4---2---1-----------1---4---1---|
|------------6---4---------------|------------4---2---------------|

 |       |       |       |        |       |       |       |
|--------------------------------|--------------------------------|
|--------5-------8---------------|----5---8---7---6---------------|
|6---6-------6-------5---8---5---|6-------------------8---6-------|
|--------------------------------|----------------------------8---|

 |       |       |       |        |       |       |       |
|--------------------------------|--------------------------------|
|--------------------------------|1---1---0-----------------------|
|4---2---1-----------1---4---1---|------------3---1---1---3---1---|
|------------4---2---------------|--------------------------------|

 |       |       |       |        |       |       |       |
|------------------------3-------|--------------------------------|
|----------------3---------------|--------------------6---6-------|
|6---5---3---5-------------------|6-------6-------4-----------3---|
|--------------------------------|--------------------------------|

 |       |       |       |        |       |       |       |
|--------------------------------|--------------------------------|
|--------5---6---8---8---8---8---|--------------------------------|
|6---6---------------------------|----5---6-------8---6---5-------|
|--------------------------------|8-----------8---------------8---|

 |       |       |       |        |       |       |       |
|--------------------------------|--------------------------------|
|8---------------8---8---8-------|6---6---6-------6---6---6-------|
|----5---8---5---------------8---|------------6---------------6---|
|--------------------------------|--------------------------------|

 |       |       |       |        |       |       |       |
|--------------------------------|--------------------------------|
|------------8-------8-------8---|8---8---8---8---8---8---8-------|
|6---6---6-------6-------6-------|----------------------------8---|
|--------------------------------|--------------------------------|

 |       |       |       |        |       |       |       |
|----7-------10------7-------10--|----5-------8-------5-------8---|
|8-------8-------8-------8-------|6-------6-------6-------6-------|
|--------------------------------|--------------------------------|
|--------------------------------|--------------------------------|

 |       |       |       |        |       |       |       |
|--------------------------------|--------------------------------|
|----5-------6h8---------5---6---|8---8---8---8---8---8---8-------|
|6-------6-------6---6-----------|----------------------------10/8|
|--------------------------------|--------------------------------|

 |       |       |       |        |       |       |       |
|------------5p3-----------------|------------5p3-----------------|
|6p5-------------6---6p5---------|6p5-------------6---6p5---------|
|----6-------------------6-------|----6-------------------6-------|
|--------------------------------|--------------------------------|

 |       |       |       |        |       |       |       |
|------------5p3-----------------|------------5p3-----------------|
|6p5-------------6---6p5---------|6p5-------------6---6p5---------|
|----6-------------------6-------|----6-------------------6-------|
|--------------------------------|--------------------------------|

 |       |       |       |        |       |       |       |
|------------5p3-----------------|------------5p3-----------------|
|6p5-------------6---6p5---------|6p5-------------6---6p5---------|
|----6-------------------6-------|----6-------------------6-------|
|--------------------------------|--------------------------------|

 |       |       |       |        |       |       |       |
|------------5p3-----------------|------------5p3-----------------|
|6p5-------------6---6p5---------|6p5-------------6---6p5---------|
|----6-------------------6-------|----6-------------------6-------|
|--------------------------------|--------------------------------|

 |       |       |       |        |       |       |       |
|--------------------------------|------------------------8---7---|
|6---6---6---6---6---6---6---6---|6---6---6---6---6---6-----------|
|--------------------------------|--------------------------------|
|--------------------------------|--------------------------------|

 |       |       |       |
|6-------------------------------|
|----------------6---------------|
|--------------------------------|
|--------------------------------|


Transcribe! 6.0 transcription http://www.seventhstring.demon.co.uk/
Created with TablEdit http://www.tabledit.com/
  development and support by
dmitry ivanov