rock
 
|tablatures   |lyrics   |discussion forums   |more tabs @ XGuitar.com

Beatles tabs

Kansas City / Hey Hey Hey Hey bass tab

KANSAS CITY/HEY, HEY, HEY, HEY (Bassline)
                           As recorded by The Beatles
                     (From the 1964 Album BEATLES FOR SALE)

Words by Kansas City/Hey, Hey, Hey,

Music by Jerry Leiber & Mike Stoller
Arranged by Hal Leonard
Transcribed by WagimawR@yahoo.com

Gtr I (E A D G) - 'Bass'

 Intro
  Moderate Rock Q=135(8=s8)
 2/4     4/4
  Gtr I
          |-3-| |-3-|          |-3-| |-3-|
  H       E E E E E E E E Q    E E E E E E E E Q
|------||--------------------|--------------------|
|------||--------------------|--------------------|
|------||--------------------|-3-3-3-3-3-3-3------|
|------||-3-3-3-3-3-3-3------|--------------------|


  |-3-| |-3-| |-3-| |-3-|
  E E E E E E E E E E E E   E E E E +Q   Q
|-------------------------|-----------------||
|-5-5-5-5-5-5-5-5-5-5-5-5-|-5---------------||
|-------------------------|---3-4-5-(5)--5--||
|-------------------------|-----------------||


 Verse 1 - "Kansas City"
  Q  Q  Q  Q    Q  Q  Q  Q    Q  Q  Q  Q    Q  Q  Q  Q
|-------------|-------------|-------------|-------------|
|-5--2-----2--|-5--2--------|-------------|-------------|
|-------5-----|-------5--2--|----2--5--2--|----2--5--2--|
|-------------|-------------|-3-----------|-3-----------|


  Q  Q  Q  Q    Q  Q  Q  Q    Q  Q  Q  Q    Q  Q  Q  Q
|-------------|-------------|-------------|-------------|
|----2--5--2--|----2--5--2--|-------------|-------------|
|-3-----------|-3-----------|----2--5--2--|----2--5--2--|
|-------------|-------------|-3-----------|-3-----------|


  Q  Q  Q  Q    Q  Q  Q  Q    Q  Q  Q  Q    Q  Q  Q  Q
|-------------|-------------|-------------|-------------||
|----4--7--4--|----2--5--2--|-------------|-------------||
|-5-----------|-3-----------|----2--3--4--|-5--3--2-----||
|-------------|-------------|-3-----------|----------5--||


 Verse 2 - "Kansas City"
  Q  Q  Q  Q    Q  Q  Q  Q    Q  Q  Q  Q    Q  Q  Q  Q
|-------------|-------------|-------------|-------------|
|----------2--|-5--2--------|----------2--|-5--2--------|
|----2--5-----|-------5--2--|----2--5-----|-------5--2--|
|-3-----------|-------------|-3-----------|-------------|


  Q  Q  Q  Q    Q  Q  Q  Q    Q  Q  Q  Q    Q  Q  Q  Q
|----------2--|----2--------|-------------|-------------|
|----2--5-----|-------5--2--|-------------|-5--2--------|
|-3-----------|-3-----------|----2--5--2--|-------5--2--|
|-------------|-------------|-3-----------|-------------|


  Q  Q  Q  Q    Q  Q  Q  Q    Q  Q  Q  Q    Q  Q  Q  Q
|-------------|-------------|-------------|-------------||
|----4--7--4--|----2--5--2--|-5-----------|-------------||
|-5-----------|-3-----------|----2--3--4--|-5--3--2-----||
|-------------|-------------|-------------|----------5--||


 Guitar Solo
  Q  Q  Q  Q    Q  Q  Q  Q    Q  Q  Q  Q    Q  Q  Q  Q
|-------------|-------------|-------------|-------------|
|----------2--|-5--2--------|----------2--|-5--2--------|
|----2--5-----|-------5--2--|----2--5-----|-------5--2--|
|-3-----------|-------------|-3-----------|-------------|


  Q  Q  Q  Q    Q  Q  Q  E E   Q  Q  Q  Q    Q  Q  Q  Q
|----------2--|-5--2---------|-------------|-------------|
|----2--5-----|-------5--2-5-|-5--------2--|-5--2--------|
|-3-----------|--------------|----2--5-----|-------5--2--|
|-------------|--------------|-------------|-------------|


  Q  Q  Q  Q    Q  Q  Q  Q    Q  Q  Q  Q    E E Q  H
|-------2-----|-------------|-------------|-------------||
|----4-----4--|----2--5--2--|-------------|-------------||
|-5-----------|-3-----------|----2--3--4--|-5-----------||
|-------------|-------------|-3-----------|-------------||


   Verses - "Hey Hey Hey..."
    Q  Q  Q  Q    Q  Q  Q  Q    Q  Q  Q  Q    Q  Q  Q  Q
||--------------|-------------|-------------|--------------|
||o----------2--|-5--2--------|----------2--|-5--2---------|
||o----2--5-----|-------5--2--|----2--5-----|-------5--2---|
||--3-----------|-------------|-3-----------|--------------|


  Q  Q  Q  Q    Q  Q  Q  Q    Q  Q  Q  Q    Q  Q  Q  Q
|----------2--|-5--2--------|-------------|-------------|
|----2--5-----|-------5--2--|----------2--|-5--2--------|
|-3-----------|-------------|----2--5-----|-------5--2--|
|-------------|-------------|-3-----------|-------------|


  Q  Q  Q  Q    Q  Q  Q  Q    Q  Q  Q  Q
|-------2-----|-------------|-------------|
|----4-----4--|----2--3--4--|-5-----------|
|-5-----------|-3-----------|----2--3--4--|
|-------------|-------------|-------------|


  1.             2.
  E E Q  H        Q  Q  Q  Q
|--------------||-------------||
|-------------o||-------------||
|-5-----------o||-5--3--2-----||
|--------------||----------5--||


   Outro
    Q  Q  Q  Q    Q  Q  Q  Q    Q  Q  Q  Q    Q  Q  Q  Q
||--------------|-------------|-------------|--------------|
||o----------2--|-5--2--------|----------2--|-5--2---------|
||o----2--5-----|-------5--2--|----2--5-----|-------5--2---|
||--3-----------|-------------|-3-----------|--------------|


  Q  Q  Q  Q    Q  Q  Q  Q    Q  Q  Q  Q    Q  Q  Q  Q
|----------2--|-5--2--------|-------------|-------------|
|----2--5-----|-------5--2--|-5--------2--|-5--2--------|
|-3-----------|-------------|----2--5-----|-------5--2--|
|-------------|-------------|-------------|-------------|


  Q  Q  Q  Q    Q  Q  Q  Q    Q  Q  Q  Q    Q  Q  Q  Q
|-------2-----|-------------|-------------|--------------||
|----4-----4--|----2--3--4--|-5-----------|-------------o||
|-5-----------|-3-----------|----2--3--4--|-5--3--2--0--o||
|-------------|-------------|-------------|--------------||
  development and support by
dmitry ivanov