rock
 
|tablatures   |lyrics   |discussion forums   |more tabs @ XGuitar.com

Beatles tabs

Ive Got A Feeling bass tab

I've Got a Feeling
The Beatles
Let it be



D-----------------------------------|
G-----7----7--7------7-----7---7----|
A---0-------------------------------|
E-----------------------------------|

Just play something along that line.
The A string open and 7th fret on the
G string.

This is played about every fourth measure
in the first two verses.

Fig. 1
D--------------------------
G-----7--7-------5-7---5-7-
A--0---------5-7-----------
E--------------------------


D------------------|-----------------|
G-----7---7---7---7|------5----------|  fig. 1
A---0---0---0---0--|-7----------5----|
E------------------|-----------------|

D--------------------------------------
G--------------------------------------
A-----------------------2-----2-------2
E--0-----0-----4-----4------------4----


D------------------------------------------
G-------------------0----0-----------------
A----------2----2-------------2------------
E-3---3----------------------------3-------


D------------------0---0-----------2
G--0---0---4---4-----------6---0----
A-----------------------------------
E-----------------------------------

For the last two verses sung by Lennon play this

D------6-----------------------
G----------7-----------5-7--5-7
A--0-----------0---5-7---------
E------------------------------

You have everything you need, just piece it together.

By Mike Henderson
  development and support by
dmitry ivanov