rock
 
|tablatures   |lyrics   |discussion forums   |more tabs @ XGuitar.com

Beatles tabs

Its Only Love bass tab

IT'S ONLY LOVE (Bassline)
                           As recorded by The Beatles
                           (From the 1965 Album HELP!)

Words and Music by John Lennon & Paul McCartney
Transcribed by Slowhand

Gtr I (E A D G) - 'Paul McCartney (Bass)'

 Intro
  Q=117
 4/4
  Gtr I
  Wx2          W
|------------|------|
|------------|------|
|------------|-3----|
|------------|------|


                1st & 2nd Verses
  H.      Q      Q.   E Q.   E   Q.   E Q  Q    Q.   E Q  Q
|------------||----------------|--------------|--------------|
|------------||o---------------|--------------|--------------|
|-0-------0--||o-3----3-2----2-|-1----1-------|--------5--5--|
|------------||----------------|--------1--1--|-3----3-------|


  Q.   E Q  Q    Q.   E Q.   E   Q.   E Q  Q    Q.   E Q  Q
|--------------|---------------|--------------|--------------|
|--------------|---------------|--------------|--------------|
|--------5--5--|-3----3-2----2-|-1----1-------|--------5--5--|
|-3----3-------|---------------|--------1--1--|-3----3-------|


                 Pre-Chorus
  Q.   E Q  Q     Q.   E Q  Q    Q.   E Q  Q    Q.   E E E +E  E
|--------------||--------------|--------------|------------------||
|--------------||--------------|--------------|------------------||
|--------5--5--||--------3--3--|--------5--5--|-3----3---3-(3)-2-||
|-3----3-------||-1----1-------|-3----3-------|--------3---------||


 Chorus
  Q.   E E E +E  E   Q  Q  Q  Q    Q  Q  E E Q    Q  E E Q  E E
|------------------|-------------|--------------|---------------|
|------------------|-------------|--------------|---------------|
|------------------|-1--1--1--1--|-----------0--|-3--3---3--3-2-|
|-5----5-0-5-(5)-5-|-------------|-3--3--3-3----|------3--------|


  Q  Q  Q  Q    Q  Q  Q  Q    Q  Q  Q  Q    Q  Q  Q  Q
|-------------|-------------|-------------|-------------|
|-------------|-------------|-------------|-------------|
|-0--0-----0--|-1--1--1--1--|-------------|-------------|
|-------0-----|-------------|-3--3--3--3--|-1--1--1--1--|


  1.               2.
  Q  Q  E E E E     Q  Q  E E E E
|----------------||---------------||
|---------------o||---------------||
|-----------0-2-o||-----------0-3-||
|-3--3--3-3------||-3--3--3-3-----||


 Outro
  Q.   E Q  Q    Q.   E Q  Q    Q.   E +Q   Q
|--------------|--------------|----------------|
|--------------|--------------|----------------|
|--------------|-----------5--|-3----3-(3)-----|
|-1----1-1--1--|-3----3-3-----|-------------3--|


  Q.   E +Q   Q    Q.   E Q  Q    Q.   E Q  Q    Q.   E Q  Q
|----------------|--------------|--------------|--------------|
|----------------|--------------|--------------|--------------|
|-0----0-(0)--2--|-3------3--2--|-0------0--0--|-3------3--2--|
|----------------|------3-------|------3-------|------3-------|


  Q.   E Q  Q    W          +W
|--------------|----------|--------*|
|--------------|----------|--------*|
|-0------0--0--|-3--------|-(3)----*|
|------3-------|----------|--------*|
  development and support by
dmitry ivanov