rock
 
|tablatures   |lyrics   |discussion forums   |more tabs @ XGuitar.com

Beatles tabs

It Wont Be Long bass tab

This tab isn't that hard, there are only three basic parts to this classic Lennon/McCartney
song. I took a long time figuring out this  song and i'm certian its right.
I'm doing it with my own band. Have fun with it!


  It wont be long. Ya!...
G|-----------
D|-----------
A|----55--3--
E|--3---3----


  Since you left me...
G|-----------
D|-----------
A|----5------
E|--3--33----


 Your comin home. Your commin home!
G|-----------------------
D|-----------------------
A|-----------------------
E|--33333333-555553-3/5--


 Main Verse
G|----------
D|--53------
A|----53----
E|------53--
  development and support by
dmitry ivanov