rock
 
|tablatures   |lyrics   |discussion forums   |more tabs @ XGuitar.com

Beatles tabs

In My Life bass tab

Title: In My Life
Artist: Beatles
Tabber: Mark, dude_man1030@hotmail.com

This is my first tab and I don't play bass so bear with me. I think it's 
straight forward but if you're having problems email me. Good luck.

Main Rift

G-----------------------------------------------------------
D----------0-2--2-2-2---------------------------------------
A---0--0-4-------------------------------------------------- x2
E-----------------------------------------------------------

Verse

G---2-----0-------------------------------------------------
D-----2-4---0-0---------------------------------------------
A---------------0-0-----------------------------------------
E-----------------------------------------------------------

G---2-----0-----2-2-----------------------------------------
D-----2-4---0-0---------------------------------------------
A-----------------------------------------------------------
E-----------------------------------------------------------

G---------------0-0-0-0-2-2-2-2-----------------------------
D---4---0--0-0----------------------------------------------
A-----------------------------------------------------------
E-----------------------------------------------------------

G-------------------------------2-2-2-2-2-2-2-2-------------
D---4-----------0-0-0-0-0-0-0-0-----------------------------
A-------2--2-2----------------------------------------------
E-----------------------------------------------------------

Main Rift

Verse

Interlude

G---2-----0-------------------------------------------------
D-----2-4---0-0---------------------------------------------
A---------------0-0-----------------------------------------
E-----------------------------------------------------------

G---2-----0-----2-2-----------------------------------------
D-----2-4---0-0---------------------------------------------
A-----------------------------------------------------------
E-----------------------------------------------------------



G---------------0-0-0-0-2-2-2-2-----------------------------
D---4---0--0-0----------------------------------------------
A-----------------------------------------------------------
E-----------------------------------------------------------

G-------------------------------2-2-2-2-2-2-2-2-------------
D---4-----------0-0-0-0-0-0-0-0-----------------------------
A-------2--2-2----------------------------------------------
E-----------------------------------------------------------

Main Rift

Hold this at the part where he says "my" in "In my life" at the end.

G-----
D--0--
A-----
E-----

Last Time the Rift is Played

G-----------------------------------------------------------
D----------0-2--2-2-2---------------------------------------
A---0--0-4--------------0-----------------------------------
E-----------------------------------------------------------
  development and support by
dmitry ivanov