rock
 
|tablatures   |lyrics   |discussion forums   |more tabs @ XGuitar.com

Beatles tabs

Im Looking Through You bass tab

I'M LOOKING THROUGH YOU (Bassline)
                           As recorded by The Beatles
                        (From the 1965 Album RUBBER SOUL)

Words and Music by John Lennon/Paul McCartney
Arranged by Jason Pittman/Hal Leonard
Transcribed by WagimawR@yahoo.com

Gtr I (E A D G) - 'Bass'

 Intro                      Verse 1
  Q=190
 4/4
  Gtr I
  Wx5          H    Q  Q     Q.   E Q  Q
|------------|------------||--------------|
|------------|------------||-----------3--|
|------------|------4--3--||--------4-----|
|------------|------------||-6----6-------|


  Q.   E Q  Q    Q.   E Q  Q    Q.   E Q  Q    Q.   E Q  Q
|--------------|--------------|--------------|---------------|
|-3----3----3--|--------------|-6----6-------|-----------3---|
|--------3-----|-6----6-8--6--|--------4--3--|--------4------|
|--------------|--------------|--------------|-6----6--------|


  Q.   E Q  Q    Q.   E E E E E   Q.   E E E E E   Q.   E E E E E
|--------------|----------------|----------------|-3----3-3-3-3----|
|-----------3--|-1----1-1-1-1-1-|-3----3-3-3-3---|-----------------|
|--------3-----|----------------|----------------|-----------------|
|-1----1-------|----------------|----------------|-----------------|


  Q.   E E E E E   Q.   E E E E E   Q.   E Q  Q    Q.   E Q  Q
|----------------|----------------|--------------|---------------|
|-6----6---------|----------------|-6----6-------|-----------3---|
|--------4-4-4---|-6----6-6-6-6---|--------4--3--|--------4------|
|----------------|----------------|--------------|-6----6--------|


  Q.   E q  q    q  q  E E E E   q  q  E E E E   q  q  E E E E
|--------------|---------------|---------------|----------------|
|--------------|-6--6----------|-6--6----------|-6--6-----------|
|-4----4-4--6--|-------4-4-4-3-|-------4-4-4-3-|-------4-4-4-3--|
|--------------|---------------|---------------|----------------|


                Verse 2
  q  Q  Q  Q     Q.   E Q  Q    Q.   E Q  Q    Q.   E Q  Q
|-------------||--------------|--------------|---------------|
|-6--6--------||-----------3--|-3----3----3--|---------------|
|-------4--3--||--------4-----|--------3-----|-6----6-8--6---|
|-------------||-6----6-------|--------------|---------------|


  Q.   E Q  Q    Q.   E Q  Q    Q.   E Q  Q    Q.   E E E E E
|--------------|--------------|--------------|-----------------|
|-6----6-------|-----------3--|-----------3--|-1----1-1-1-1-1--|
|--------4--3--|--------4-----|--------3-----|-----------------|
|--------------|-6----6-------|-1----1-------|-----------------|


  Q.   E E E E E   Q.   E E E E E   Q.   E E E E E   Q.   E E E E E
|----------------|-3----3-3-3-3---|----------------|-----------------|
|-3----3-3-3-3---|----------------|-6----6---------|-----------------|
|----------------|----------------|--------4-4-4---|-6----6-6-6-6----|
|----------------|----------------|----------------|-----------------|


  Q.   E Q  Q    Q.   E Q  Q    Q.   E q  q    q  q  E E E E
|--------------|--------------|--------------|----------------|
|-6----6-------|-----------3--|--------------|-6--6-----------|
|--------4--3--|--------4-----|-4----4-4--6--|-------4-4-4-3--|
|--------------|-6----6-------|--------------|----------------|


                                                Bridge
  q  q  E E E E   q  q  E E E E   q  Q  Q  Q     q  q  q  q
|---------------|---------------|-------------||--------------|
|-6--6----------|-6--6----------|-6--6--------||-------6--6---|
|-------4-4-4-3-|-------4-4-4-3-|-------4--3--||-4--4---------|
|---------------|---------------|-------------||--------------|


  q  q  q  q    q  q  q  q    q  q  q  q    q  q  q  q
|-------------|-------------|-------------|--------------|
|-------6-----|-6--6--------|-6--6--------|-------6--6---|
|-4--4-----4--|-------6--6--|-------6--6--|-4--4---------|
|-------------|-------------|-------------|--------------|


  q  q  q  q    Q.   E E E E E   Q.   E E E E E   Q  Q  Q  Q
|-------------|----------------|----------------|--------------||
|-------6-----|----------------|----------------|-6--6---------||
|-4--4-----4--|-6----6-6-6-6---|-6----6-6-6-6---|-------4--3---||
|-------------|----------------|----------------|--------------||


 Verse 3
  Q.   E Q  Q    Q.   E Q  Q    Q.   E Q  Q    Q.   E Q  Q
|--------------|--------------|--------------|---------------|
|-----------3--|-3----3----3--|--------------|-6----6--------|
|--------4-----|--------3-----|-6----6-8--6--|--------4--3---|
|-6----6-------|--------------|--------------|---------------|


  Q.   E Q  Q    Q.   E Q  Q    Q.   E E E E E   Q.   E E E E E
|--------------|--------------|----------------|-----------------|
|-----------3--|-----------3--|-1----1-1-1-1-1-|-3----3-3-3-3----|
|--------4-----|--------3-----|----------------|-----------------|
|-6----6-------|-1----1-------|----------------|-----------------|


  Q.   E E E E E   Q.   E E E E E   Q.   E E E E E   Q.   E Q  Q
|-3----3-3-3-3---|----------------|----------------|---------------|
|----------------|-6----6---------|----------------|-6----6--------|
|----------------|--------4-4-4---|-6----6-6-6-6---|--------4--3---|
|----------------|----------------|----------------|---------------|


  Q.   E Q  Q    Q.   E q  q    q  q  E E E E   q  q  E E E E
|--------------|--------------|---------------|----------------|
|-----------3--|--------------|-6--6----------|-6--6-----------|
|--------4-----|-4----4-4--6--|-------4-4-4-3-|-------4-4-4-3--|
|-6----6-------|--------------|---------------|----------------|


                                Bridge
  q  q  E E E E   q  Q  Q  Q     q  q  q  q    q  q  q  q
|---------------|-------------||-------------|--------------|
|-6--6----------|-6--6--------||-------6--6--|-------6------|
|-------4-4-4-3-|-------4--3--||-4--4--------|-4--4-----4---|
|---------------|-------------||-------------|--------------|


  q  q  q  q    q  q  q  q    q  q  q  q    q  q  q  q
|-------------|-------------|-------------|--------------|
|-6--6--------|-6--6--------|-------6--6--|-------6------|
|-------6--6--|-------6--6--|-4--4--------|-4--4-----4---|
|-------------|-------------|-------------|--------------|


                                                  Verse 4
  Q.   E E E E E   Q.   E E E E E   Q  Q  Q  Q     Q.   E Q  Q
|----------------|----------------|-------------||---------------|
|----------------|----------------|-6--6--------||-----------3---|
|-6----6-6-6-6---|-6----6-6-6-6---|-------4--3--||--------4------|
|----------------|----------------|-------------||-6----6--------|


  Q.   E Q  Q    Q.   E Q  Q    Q.   E Q  Q    Q.   E Q  Q
|--------------|--------------|--------------|---------------|
|-3----3----3--|--------------|-6----6-------|-----------3---|
|--------3-----|-6----6-8--6--|--------4--3--|--------4------|
|--------------|--------------|--------------|-6----6--------|


  Q.   E Q  Q    Q.   E E E E E   Q.   E E E E E   Q.   E E E E E
|--------------|----------------|----------------|-3----3-3-3-3----|
|-----------3--|-1----1-1-1-1-1-|-3----3-3-3-3---|-----------------|
|--------3-----|----------------|----------------|-----------------|
|-1----1-------|----------------|----------------|-----------------|


  Q.   E E E E E   Q.   E E E E E
|----------------|----------------|
|-6----6---------|----------------|
|--------4-4-4---|-6----6-6-6-6---|
|----------------|----------------|


  Q.   E Q  Q    Q.   E Q  Q    Q.   E q  Q
|--------------|--------------|---------------||
|-6----6-------|-----------3--|---------------||
|--------4--3--|--------4-----|-4----4-4------||
|--------------|-6----6-------|---------------||


   Outro
    q  q  E E E E   q  q  E E E E  5x
||----------------|----------------||
||o-6--6----------|-6--6----------o||
||o-------4-4-4-3-|-------4-4-4-3-o||
||----------------|----------------||
  development and support by
dmitry ivanov