rock
 
|tablatures   |lyrics   |discussion forums   |more tabs @ XGuitar.com

Beatles tabs

Im Happy Just To Dance With You bass tab

beatles_i'm_happy_just_to_dance_with_you

Basstab by Jan Bjorklund, Finland

You are welcome to request for basstabs!
Fingering and positions as suggested by TablEdit,
please use common sense!

TablEdited by Jan Bjorklund
Tuning : E A D G 	Time Signature: 4/4


|------------------|--------0-0-0---|----------------------|
|------------------|3-3-3-4---------|----------------------|
|3-3-3-3-3-3-3-3-3-|--------------2-|3-3-3-3-3-3-3-3-3-3-3-|
|------------------|----------------|----------------------|

|----------0---0-0-0-|------------------|--------0-0-0-0---|
|3-3-3-3-------------|----------------2-|3-3-3-4-----------|
|--------------------|3-3-3-3-3-3-3-3---|------------------|
|--------1---3-------|------------------|----------------3-|

|1-1-1-------------|------------------|------------------|--------------------|
|------------------|1-1-1-1-1-1-1-1-0-|1-1-1-1-1-4-4-4-2-|3---3-3-3-----------|
|------0-1-1-1-1-1-|------------------|------------------|----------1-1-1-1-1-|
|------------------|------------------|------------------|--1-----------------|

|--------------------|------------------|1-1-1-1-1-1-1-1---|
|1-1-1-1-1-4---4-4-4-|3-3-3-------------|------------------|
|--------------------|------0-1-1-1-1-1-|------------------|
|------------2-------|------------------|----------------4-|

|----------------0-|1-1-1-1-------------|------------------|
|1-1-1-1-1---------|--------------------|1-1-1-1-1-1-1-1-1-|
|----------3-3-3---|----------1-1-1-1-1-|------------------|
|------------------|--------4-----------|------------------|

|------------------|--------0-0-0-0---|----------------|--------0---0-0-0-|
|------------------|3-3-3-4-----------|--------------2-|3-3-3-4-----------|
|3-3-3-3-3-3-3-3-3-|------------------|3-3-3-3-3-3-3---|------------------|
|------------------|----------------3-|----------------|----------3-------|

|----------------|--------0-0-0-0-|1---1-1-1-----------|------------------|
|----------------|3-3-3-4---------|--------------------|1-1-1-1-1-1-1-1-1-|
|3-3-3-3-3-3-3-3-|----------------|----------1-1-1-1-1-|------------------|
|----------------|----------------|--4-----------------|------------------|

|----------------|--------------------|------------------|--------------0-|
|1-1-1-3-4-4-4-2-|3---3-3-3-----------|1-1-1-3-4-4-4-4---|3-3-3-----------|
|----------------|----------1-1-1-1-1-|------------------|------0-1-1-1---|
|----------------|--1-----------------|----------------2-|----------------|

|1-1-1-1---1-1-1---|--------------0-|1---1-1-1-----------|----------------------|
|----------------0-|1-1-1-----------|--------------------|1-1-1-1-1-1-1-1-1-1-1-|
|------------------|------2-3-3-3---|----------1-1-1-1-1-|----------------------|
|--------4---------|----------------|--4-----------------|----------------------|

|----------------|--------0-0-0-0---|----------------|----------0---0-0-0-|
|----------------|3-3-3-4-----------|----------------|3-3-3-3-------------|
|3-3-3-3-3-3-3-3-|------------------|3-3-3-3-3-3-3-3-|--------------------|
|----------------|----------------3-|----------------|--------1---3-------|

|----------------|----------0---0-0-0-|1-1-1-1-------------|
|----------------|3-3-3-3-------------|--------------------|
|3-3-3-3-3-3-3-3-|--------------------|----------1-1-1-1-1-|
|----------------|--------1---3-------|--------4-----------|

|------------------|--------------------|--------------------|
|1-1-1-1-1-1-1-1-0-|1-1-1-1-1-4---4-4-4-|3-3-3-3-------------|
|------------------|--------------------|----------1-1-1-1-1-|
|------------------|------------2-------|--------1-----------|

|--------------------|----------------0-|1-1-1-1-1-1-1-1-|------------------|
|1-1-1-1-1-4-4-4-4---|3-3-3-3-----------|----------------|1-1-1-------------|
|--------------------|----------1-1-1---|----------------|------2-3-3-3-3-3-|
|------------------2-|--------1---------|----------------|------------------|

|1-1-1-------------|----------------|----------0-0-0-0-|1-1-1-1-------------|
|------------------|--------------2-|3-3-3-3-----------|--------------------|
|------0-1-1-1-1-1-|3-3-3-3-3-3-3---|------------------|----------1-1-1-1-1-|
|------------------|----------------|--------1---------|--------4-----------|

|----------------|----------0-0-0-0---|1---1-1-1-----------|
|----------------|3-3-3-3-------------|--------------------|
|3-3-3-3-3-3-3-3-|--------------------|----------1-1-1-1-1-|
|----------------|--------1---------3-|--4-----------------|

|----------------||
|1-1-1-1-1-1-1---||
|--------------2-||
|----------------||


Created with TablEdit http://www.tabledit.com/
  development and support by
dmitry ivanov