rock
 
|tablatures   |lyrics   |discussion forums   |more tabs @ XGuitar.com

Beatles tabs

Ill Cry Instead bass tab

beatles_i'll_cry_instead

Basstab by Jan Bjorklund, Finland

You are welcome to request for basstabs!
Fingering and positions as suggested by TablEdit,
please use common sense!

TablEdited by Jan Bjorklund
Tuning : E A D G 	Time Signature: 4/4


|--|0-------|0-------|0-------|0-------|0-------|0-----|--------|
|4-|--0-4-0-|--0-4-0-|--0-4-0-|--0-4-0-|--0-4-0-|--4-2-|0-------|
|--|--------|--------|--------|--------|--------|------|--0-3-0-|
|--|--------|--------|--------|--------|--------|------|--------|

|------|----|--------|--------|--------|0-0-----|----2---|0---|
|0---0-|----|--------|--------|----0-3-|----0-4-|0-0---0-|--0-|
|--0---|3---|3-3-----|3-3-----|3-3-----|--------|--------|----|
|------|--3-|----3-3-|----3-3-|--------|--------|--------|----|

|0-------|0-----|0-----|0-----|0-----|0-----|0-----|------|------|
|--0-2-4-|--0-0-|--0-0-|--0-0-|--0-0-|--0-0-|--4-2-|0-----|0---0-|
|--------|------|------|------|------|------|------|--0-0-|--0---|
|--------|------|------|------|------|------|------|------|------|

|------|--------|--------|--------|0-0-----|----2---|0---|0-----|
|------|--------|--------|----0-3-|----0-4-|0-0---0-|--0-|--0---|
|3-----|3-3---3-|3-3-----|3-3-----|--------|--------|----|----3-|
|--3-3-|----3---|----3-3-|--------|--------|--------|----|------|

|------|------|----|------|------|------|----|----|0-------|
|--4---|--4---|--2-|--2-1-|0-----|0-0---|2---|--0-|--0-4-0-|
|2---2-|2---2-|0---|0-----|--0-0-|----0-|--2-|0---|--------|
|------|------|----|------|------|------|----|----|--------|

|0-------|0-----|0-------|0-------|0-----|------|------|----|
|--0-4-0-|--0-0-|--0-4-0-|--0-4-0-|--4-2-|0-----|0---0-|----|
|--------|------|--------|--------|------|--0-0-|--0---|3---|
|--------|------|--------|--------|------|------|------|--3-|

|--------|5-4-------|----------|------|----2---|0---|0-------|
|--------|----5-3---|0-0-------|--0---|0-0---0-|--0-|--4-2-0-|
|3-3-----|--------5-|----3-1-0-|------|--------|----|--------|
|----3-3-|----------|----------|3---3-|--------|----|--------|

|------|------|----|------|------|--------|------|------|0-------|
|--4---|--4---|--2-|--2-1-|0-----|0-0---0-|2-----|--0-0-|--0-4-0-|
|2---2-|2---2-|0---|0-----|--0-0-|----0---|--2-1-|0-----|--------|
|------|------|----|------|------|--------|------|------|--------|

|0-------|0-------|0-------|0-------|0-----|--------|------|
|--0-4-0-|--0-4-0-|--0-4-0-|--0-4-0-|--4-2-|0-------|0---0-|
|--------|--------|--------|--------|------|--0-3-0-|--0---|
|--------|--------|--------|--------|------|--------|------|

|----|--------|5-4-------|----------|0-0-----|----2---|0---|
|----|--------|----5-3---|0-0-------|----0-4-|0-0---0-|--0-|
|3---|3-3-----|--------5-|----3-1-0-|--------|--------|----|
|--3-|----3-3-|----------|----------|--------|--------|----|

|0-||
|--||
|--||
|--||



Created with TablEdit http://www.tabledit.com/
  development and support by
dmitry ivanov