rock
 
|tablatures   |lyrics   |discussion forums   |more tabs @ XGuitar.com

Beatles tabs

If I Needed Someone bass tab

IF I NEEDED SOMEONE (Bassline)
                           As recorded by The Beatles
                        (From the 1965 Album RUBBER SOUL)

Words and Music by George Harrison
Arranged by The Beatles Complete Scores

Gtr I (E A D G) - 'Bass'

 Intro                                                  Chorus
  Q=122
  A                                                      A
 4/4
  Gtr I
  W          W          Q  E E E E Q    Q  E E E E Q     Q   E E E E Q
|----------|----------|------------9--|------------9--||-------------9---|
|----------|----------|-7--5-7s9-9----|-7--5-7s9-9----||-7---5-7s9-9-----|
|----------|----------|-0-------------|-0-------------||-0---------------|
|----------|----------|---------------|---------------||-----------------|

  A
   Q    E E E E  Q    Q   E E E E Q
|----------------9--|-------------9---|
|--7----5-7s9-9-----|-7---5-7s9-9-----|
|--0----------------|-0---------------|
|-------------------|-----------------|


                      G/A
   Q    E E E E Q      Q   E E E E Q    Q   E E E E Q
|---------------9---|--------------9--|-------------9-----|
|--7----5-7s9-9-----|--7---5-7s9-9----|-7---5-7s9-9-------|
|--0----------------|--0--------------|-0-----------------|
|-------------------|-----------------|-------------------|


                                       Verse
                                    $
  A                                     A
   Q     E E E E Q    Q  E E E E Q      Q   E E E E Q      Q    E E E E  Q
|----------------9--|------------9--||--------------9---|----------------9---|
|--7-----5-7s9-9----|-7--5-7s9-9----||o-7---5-7s9-9-----|--7----5-7s9-9------|
|--0----------------|-0-------------||o-0---------------|--0-----------------|
|-------------------|---------------||------------------|--------------------|

  A                                     G/A
  Q   E E E E Q      Q    E E E E Q      Q   E E E E Q
|-------------9---|---------------9---|--------------9--|
|-7---5-7s9-9-----|--7----5-7s9-9-----|--7---5-7s9-9----|
|-0---------------|--0----------------|--0--------------|
|-----------------|-------------------|-----------------|


                    A
  Q   E E E E Q      Q     E E E E Q
|-------------9---|----------------9----|
|-7---5-7s9-9-----|--7-----5-7s9-9------|
|-0---------------|--0------------------|
|-----------------|---------------------|


                  Bridge
  1.,3.
                   Em               F#7
  Q  E E E E Q     Q   Q   E Q  E    Q    Q   E Q   E
|------------9--||----------------|-------------------|
|-7--5-7s9-9----||----------------|--9----9---9-9-----|
|-0-------------||-7---7---7-7--7-|-------------------|
|---------------||----------------|-----------------9-|


                    Bm
  Q   Q   E E E E    Q    Q    E Q   E
|-----------------|----------------------|
|-----------------|----------------------|
|-9---9---9-9-----|-------9----9-9-------|
|-------------9-8-|--7---------------7---|


                                            To Coda
  Em               F#7                Bm               E7sus4E7
  Q   Q   E Q  E    Q    Q   E Q  E    Q   Q  E Q  E   Q  Q  E Q  E
|----------------|------------------|----------------|----------------||
|----------------|------------------|----------------|---------------o||
|-7---7---7-7----|--9----9---9-9----|----------------|-7--7--7-7--7--o||
|--------------7-|----------------9-|--7---7--7-7--7-|----------------||


                  Interlude
  2.
  A                A
  Q  E E E E Q     Q  E E E E Q     Q   E E E E Q    Q  E E E E Q
|------------9--||------------9--|--------------9--|------------9---|
|-7--5-7s9-9----||-7--5-7s9-9----|--7---5-7s9-9----|-7--5-7s9-9-----|
|-0-------------||-0-------------|--0--------------|-0--------------|
|---------------||---------------|-----------------|----------------|


                    G/A
   Q   E E E E Q    Q  E E E E Q     Q   E E E E Q
|--------------9--|------------9--|--------------9--|
|--7---5-7s9-9----|-7--5-7s9-9----|--7---5-7s9-9----|
|--0--------------|-0-------------|--0--------------|
|-----------------|---------------|-----------------|


                     D.S. al Coda
  A
  Q  E E E E Q     Q   E E E E Q
|------------9--|--------------9----|
|-7--5-7s9-9----|--7---5-7s9-9------|
|-0-------------|--0----------------|
|---------------|-------------------|


                 Verse
  &
  E7sus4E7        A
  Q  Q  E Q  E    Q   E E E E Q      Q    E E E E  Q    Q   E E E E Q
|--------------||-------------9---|----------------9--|-------------9----|
|--------------||-7---5-7s9-9-----|--7----5-7s9-9-----|-7---5-7s9-9------|
|-7--7--7-7--7-||-0---------------|--0----------------|-0----------------|
|--------------||-----------------|-------------------|------------------|


                      G/A
   Q    E E E E Q      Q   E E E E Q    Q   E E E E Q
|---------------9---|--------------9--|-------------9---|
|--7----5-7s9-9-----|--7---5-7s9-9----|-7---5-7s9-9-----|
|--0----------------|--0--------------|-0---------------|
|-------------------|-----------------|-----------------|


  A
   Q     E E E E Q    Q  E E E E Q
|----------------9--|------------9----||
|--7-----5-7s9-9----|-7--5-7s9-9------||
|--0----------------|-0---------------||
|-------------------|-----------------||


 Outro
  A
  Q  E E E E Q     Q   E E E E Q    Q  E E E E Q     Q   E E E E Q    W
|------------9--|--------------9--|------------9--|--------------9--|------*|
|-7--5-7s9-9----|--7---5-7s9-9----|-7--5-7s9-9----|--7---5-7s9-9----|-7----*|
|-0-------------|--0--------------|-0-------------|--0--------------|-0----*|
|---------------|-----------------|---------------|-----------------|------*|
  development and support by
dmitry ivanov