rock
 
|tablatures   |lyrics   |discussion forums   |more tabs @ XGuitar.com

Beatles tabs

If I Fell bass tab

beatles_if_i_fell

Basstab by Jan Bjorklund, Finland

You are welcome to request for basstabs!
Fingering and positions as suggested by TablEdit,
please use common sense!

TablEdited by Jan Bjorklund
Tuning : E A D G 	Time Signature: 4/4


|------|--------|------|2-2-2-|------|--------|------|2-2-2-|
|0-0-2-|4-4-4-3-|2-2-2-|------|0-0-2-|4-4-4-3-|2-2-2-|------|
|------|--------|------|------|------|--------|------|------|
|------|--------|------|------|------|--------|------|------|

|------|0-0-2-|------|--------|------|2-2-2-|------|--------|
|0-0-0-|------|0-0-2-|4-4-4-3-|2-2-2-|------|0-0-2-|4-4-4-3-|
|------|------|------|--------|------|------|------|--------|
|------|------|------|--------|------|------|------|--------|

|------|2-2-2-|------|------|0-0-0-|0-0-0-|0-0-0-|------|2-2-2-|
|2-2-2-|------|0-0-0-|0-0-0-|------|------|------|0-0-0-|------|
|------|------|------|------|------|------|------|------|------|
|------|------|------|------|------|------|------|------|------|

|------|--------|------|2-2-2-|------|--------|------|2-2-2-|
|0-0-2-|4-4-4-3-|2-2-2-|------|0-0-2-|4-4-4-3-|2-2-2-|------|
|------|--------|------|------|------|--------|------|------|
|------|--------|------|------|------|--------|------|------|

|------|0-0-2-|------|--------|------|2-2-2-|------|--------|
|0-0-0-|------|0-0-2-|4-4-4-3-|2-2-2-|------|0-0-2-|4-4-4-3-|
|------|------|------|--------|------|------|------|--------|
|------|------|------|--------|------|------|------|--------|

|------|2-2-2-|------|------|0-0-0-|0-0-0-|0-0-0-|------|2-2-2-|
|2-2-2-|------|0-0-0-|0-0-0-|------|------|------|0-0-0-|------|
|------|------|------|------|------|------|------|------|------|
|------|------|------|------|------|------|------|------|------|

|------|--------|------|2-2-2-|------|--------|------|2-2-2-|
|0-0-2-|4-4-4-3-|2-2-2-|------|0-0-2-|4-4-4-3-|2-2-2-|------|
|------|--------|------|------|------|--------|------|------|
|------|--------|------|------|------|--------|------|------|

|------|0-0-0-|------|0-0-0-|--||
|0-0-0-|------|0-0-0-|------|0-||
|------|------|------|------|--||
|------|------|------|------|--||



Created with TablEdit http://www.tabledit.com/
  development and support by
dmitry ivanov