rock
 
|tablatures   |lyrics   |discussion forums   |more tabs @ XGuitar.com

Beatles tabs

I Wanna Be Your Man bass tab

beatles_i_wanna_be_your_man

TablEdited by Jan Bjorklund
Tuning : E A D G 	Time Signature: 4/4


|------|------|------|--------|------|------|------|------|
|----0-|----0-|----0-|------0-|----0-|----0-|----0-|----0-|
|--2---|--2---|--2---|----2---|--2---|--2---|--2---|--2---|
|0-----|0-----|0-----|0-0-----|0-----|0-----|0-----|0-----|

|------|------|------|------|------|------|------|------|
|----0-|----0-|----0-|----0-|----0-|----0-|----0-|----0-|
|--2---|--2---|--2---|--2---|--2---|--2---|--2---|--2---|
|0-----|0-----|0-----|0-----|0-----|0-----|0-----|0-----|

|--|----|----|----|----|----|----|------|--------|------|
|--|4-4-|----|2-2-|----|----|----|----0-|------0-|----0-|
|--|----|2-2-|----|4-4-|----|2-2-|--2---|----2---|--2---|
|0-|----|----|----|----|2-2-|----|0-----|0-0-----|0-----|

|------|------|--------|------|------|------|------|------|
|----0-|----0-|------0-|----0-|----0-|----0-|----0-|----0-|
|--2---|--2---|----2---|--2---|--2---|--2---|--2---|--2---|
|0-----|0-----|0-0-----|0-----|0-----|0-----|0-----|0-----|

|------|------|------|------|------|------|------|--|----|
|----0-|----0-|----0-|----0-|----0-|----0-|----0-|--|4-4-|
|--2---|--2---|--2---|--2---|--2---|--2---|--2---|--|----|
|0-----|0-----|0-----|0-----|0-----|0-----|0-----|0-|----|

|----|----|----|----|----|------|--------|------|------|
|----|2-2-|----|----|----|----0-|------0-|----0-|----0-|
|2-2-|----|4-4-|----|2-2-|--2---|----2---|--2---|--2---|
|----|----|----|2-2-|----|0-----|0-0-----|0-----|0-----|

|------|--------|------|------|------|------|------|------|
|----0-|------0-|----0-|----0-|----0-|----0-|----0-|----0-|
|--2---|----2---|--2---|--2---|--2---|--2---|--2---|--2---|
|0-----|0-0-----|0-----|0-----|0-----|0-----|0-----|0-----|

|------|------|------|------|------|--------|------|------|
|----0-|----0-|----0-|----0-|----0-|------0-|----0-|----0-|
|--2---|--2---|--2---|--2---|--2---|----2---|--2---|--2---|
|0-----|0-----|0-----|0-----|0-----|0-0-----|0-----|0-----|

|------|------|------|------|------|------|------|------|
|----0-|----0-|----0-|----0-|----0-|----0-|----0-|----0-|
|--2---|--2---|--2---|--2---|--2---|--2---|--2---|--2---|
|0-----|0-----|0-----|0-----|0-----|0-----|0-----|0-----|

|------|------|--|----|----|----|----|----|----|------|
|----0-|----0-|--|4-4-|----|2-2-|----|----|----|----0-|
|--2---|--2---|--|----|2-2-|----|4-4-|----|2-2-|--2---|
|0-----|0-----|0-|----|----|----|----|2-2-|----|0-----|

|--------|------|------|------|------|------|------|------|
|------0-|----0-|----0-|----0-|----0-|----0-|----0-|----0-|
|----2---|--2---|--2---|--2---|--2---|--2---|--2---|--2---|
|0-0-----|0-----|0-----|0-----|0-----|0-----|0-----|0-----|

|--|
|--|
|--|
|0-|



Created with TablEdit http://www.tabledit.com/
  development and support by
dmitry ivanov