rock
 
|tablatures   |lyrics   |discussion forums   |more tabs @ XGuitar.com

Beatles tabs

I Should Have Known Better bass tab

Beatles_I Should Have Known Better

Basstab by Jan Bjorklund, Finland

You are welcome to request for basstabs!
Fingering and positions as suggested by TablEdit,
please use common sense!

TablEdited by Jan Bjorklund
Tuning : E A D G 	Time Signature: 4/4


|0---0-------|0-0---------|0-0-------|0-0---------|0-0-------|
|------0-0-4-|----0-0-2-4-|----0-0-4-|----0-0-2-4-|----0-0-4-|
|------------|------------|----------|------------|----------|
|------------|------------|----------|------------|----------|

|0-0---------|0-0-------|0-0---------|0-0-------|0-0-------|
|----0-0-2-4-|----0-0-4-|----0-0-2-4-|----0-0-4-|----2-2-0-|
|------------|----------|------------|----------|----------|
|------------|----------|------------|----------|----------|

|----0-----|----2-----|0-0-------|0-0---------|0-0-------|0-0---------|
|----------|0-0---0-2-|----0-0-4-|----0-0-2-4-|----0-0-4-|----0-0-2-4-|
|3-3---3-4-|----------|----------|------------|----------|------------|
|----------|----------|----------|------------|----------|------------|

|0-0-------|0-0---------|0-0-------|0-0-------|----0-----|--------|
|----0-0-4-|----0-0-2-4-|----0-0-4-|----2-2-0-|----------|----4---|
|----------|------------|----------|----------|3-3---3-0-|2-2---2-|
|----------|------------|----------|----------|----------|--------|

|--------|----0-----|0-0---0-|--------|--------|----------|0-0-----|
|2-2---2-|--------0-|----0---|----4-3-|2-2-----|2-2-----2-|----0-0-|
|----2---|3-3---3---|--------|2-2-----|----2-2-|----2-2---|--------|
|--------|----------|--------|--------|--------|----------|--------|

|0-0-0-------|----0-----|----2-------|0-0-----0---|----4-4-----|
|------3-2-0-|----------|0-0---0-2-4-|----0-0---4-|2-2-----2---|
|------------|3-3---3-4-|------------|------------|----------5-|
|------------|----------|------------|------------|------------|

|----0-0-----|----2-------|0-0---------|0-0---------|0-0-------|
|------------|0-0---0-2-4-|----0-0-2-0-|----0-0-2-0-|----0-0-4-|
|3-3-----3-4-|------------|------------|------------|----------|
|------------|------------|------------|------------|----------|

|0-0---------|0-0-------|0-0---------|0-0-------|0-0-------|
|----0-0-2-4-|----0-0-4-|----0-0-2-4-|----0-0-4-|----2-2-0-|
|------------|----------|------------|----------|----------|
|------------|----------|------------|----------|----------|

|----0-----|----2-----|0-0-------|0-0-----2---|0-0-------|0-0-0-------|
|----------|0-0---0-2-|----0-0-4-|----0-0---0-|----0-0-4-|------2-0---|
|3-3---3-4-|----------|----------|------------|----------|----------2-|
|----------|----------|----------|------------|----------|------------|

|0-0-----|0-0-----|0-0-----|0-0-------|----0-----|----2-----|
|----0-0-|----0-0-|----0-0-|----2-2-0-|----------|0-0---0-2-|
|--------|--------|--------|----------|3-3---3-4-|----------|
|--------|--------|--------|----------|----------|----------|

|0-0-------|0-0---------|0-0-------|0-0---------|0-0-------|
|----0-0-4-|----0-0-2-4-|----0-0-4-|----0-0-2-4-|----0-0-4-|
|----------|------------|----------|------------|----------|
|----------|------------|----------|------------|----------|

|0-0---------|0-0-------|0-0-------|----0-----|--------|--------|
|----0-0-2-4-|----0-0-4-|----2-2-0-|----------|----4---|2-2---2-|
|------------|----------|----------|3-3---3-0-|2-2---2-|----2---|
|------------|----------|----------|----------|--------|--------|

|----0-----|0-0---0-|--------|--------|----------|0-0-----|0-0-0-------|
|--------0-|----0---|----4-3-|2-2-----|2-2-----2-|----0-0-|------3-2-0-|
|3-3---3---|--------|2-2-----|----2-2-|----2-2---|--------|------------|
|----------|--------|--------|--------|----------|--------|------------|

|----0-----|----2-------|0-0-----0---|----4-4-----|----0-0-----|
|----------|0-0---0-2-4-|----0-0---4-|2-2-----2---|------------|
|3-3---3-4-|------------|------------|----------5-|3-3-----3-4-|
|----------|------------|------------|------------|------------|

|----2-------|0-0---------|0-0---------|0-0---------|0-0---------|
|0-0---0-2-4-|----0-0-2-0-|----0-0-2-4-|----0-0-2-4-|----0-0-2-4-|
|------------|------------|------------|------------|------------|
|------------|------------|------------|------------|------------|

|0-0---------|0-0---------|0-0---------|0-0---------|0-0---------|
|----0-0-2-4-|----0-0-2-4-|----0-0-2-4-|----0-0-2-4-|----0-0-2-4-|
|------------|------------|------------|------------|------------|
|------------|------------|------------|------------|------------|

|0-0---------|0-0---------|0-0---------|0-0---------|0-0---------|
|----0-0-2-4-|----0-0-2-4-|----0-0-2-4-|----0-0-2-4-|----0-0-2-4-|
|------------|------------|------------|------------|------------|
|------------|------------|------------|------------|------------|

|0-0---------|0-0---------|0-0---------|0-0---------|0-0---------|
|----0-0-2-4-|----0-0-2-4-|----0-0-2-4-|----0-0-2-4-|----0-0-2-4-|
|------------|------------|------------|------------|------------|
|------------|------------|------------|------------|------------|






Created with TablEdit http://www.tabledit.com/
  development and support by
dmitry ivanov