rock
 
|tablatures   |lyrics   |discussion forums   |more tabs @ XGuitar.com

Beatles tabs

I Me Mine bass tab

I ME MINE (Bassline)
                           As recorded by The Beatles
                         (From the 1970 Album LET IT BE)

Words and Music by George Harrison
Transcribed by Slowhand (http://www.instantpowertabs.de.vu)

Gtr I (E A D G) - 'Paul McCartney (Bass)'

 Intro                               1st - 3rd Verses
  Q=85
 6/8
  Gtr I
  Q.   Q.     H.        Q.   Q.       Q.   Q.     H.        Q.   Q  E
|-----------|---------|-----------||------------|---------|-------------|
|-----------|---------|-----------||o-----------|---------|-5-------6---|
|------3----|-5-------|-----------||o------3----|-5-------|------7------|
|-5---------|---------|-3----0----||--5---------|---------|-------------|


  Q.   E S S E   Q.   Q.     Q.   Q.
|--------------|-----------|-----------|
|-7------------|-----------|-----------|
|--------7s5-3-|------3----|-5---------|
|--------------|-5---------|-----------|


                             Pre-Chorus
  Q.   a Q   E   Q.   Q.      H    +E  E
|--------------|-----------||-------------|
|-5------------|-----------||-------------|
|------5s7\----|-----------||-5----(5)-7--|
|------------8-|-5---------||-------------|


                                        1.,2.
  H    +E  E   H    +E  E   Q.   E E E   Q.   Q.      Q.    E  E  E    H.
|------------|------------|------------|-----------|----------------|--------|
|----------5-|-6----(6)-7-|-9------6-9-|-7----9----|-10----12s14-14-|-15-----|
|-8----(8)---|------------|------7-----|-----------|----------------|--------|
|------------|------------|------------|-----------|----------------|--------|


                     Chorus
   Q   E S S S E S    E S E S E. S E
|------------------||----------------|
|------------------||---7-5-4----4---|
|--------8-8-8-8-8-||---------7------|
|-13/--------------||-5--------------|


  E S E S E. S E   E S E S E. S E   E S E S E. S E
|----------------|----------------|-----------------|
|---7-5-4--------|---7-5-4--------|---7-5-4---------|
|---------7--4---|---------7--4---|---------7--4----|
|-5--------------|-5--------------|-5---------------|


  E S E S E. S E   E S E S E. S E
|---7-5-4----4---|---7-5-4--------|
|---------7------|---------7--4---|
|-5--------------|-5--------------|
|----------------|----------------|


  E S E S E. S E   E S E S E. S E   Q.   E S E.
|----------------|----------------|--------------|
|---7-5-4--------|---7-5-4--------|--------------|
|---------7--4---|---------7--4---|-7\-----------|
|-5--------------|-5--------------|------7-7-4---|


                     3.
  E S E S E E S S  3x Q.   Q.      Q.    Q   E
|------------------||-----------|--------------|
|-----------------o||-7----9----|-10----12s=14-|
|---7-5-4-2-4-5s7-o||-----------|--------------|
|-0----------------||-----------|--------------|


   H.         S  S  S  S  Q  Q
|----------:---------------------*|
|-15-------:-14-12-14-12-10s=3---*|
|----------:---------------------*|
|----------:---------------------*|
  development and support by
dmitry ivanov