rock
 
|tablatures   |lyrics   |discussion forums   |more tabs @ XGuitar.com

Beatles tabs

I Dont Want To Spoil The Party bass tab

I DON'T WANT TO SPOIL THE PARTY (Bassline)
                           As recorded by The Beatles
                     (From the 1964 Album BEATLES FOR SALE)

Words and Music by John Lennon & Paul McCartney
Transcribed by Slowhand (http://www.instantpowertabs.de.vu)

Gtr I (E A D G) - 'Paul McCartney - Bass'

 Intro
  Q=189
 4/4
  Gtr I
  Wx6          H    H      H    H
|------------|-----------|-----------||
|------------|-5---------|-5---------||
|------------|------5----|------5----||
|------------|-----------|-----------||


   1st - 4th Verses
    $
    $$
    H    H      H    H      H    H
||------------|-----------|-----------|
||o-5---------|-5---------|-5---------|
||o------5----|------5----|------5----|
||------------|-----------|-----------|


  H    H      H    H      H    H      H    H
|-----------|-----------|-----------|-----------|
|-5---------|-5---------|-5---------|-----------|
|------5----|------5----|------5----|-5---------|
|-----------|-----------|-----------|------5----|


              Chorus
  H    H       H    Q  Q    H    H      H    H
|-----------||------------|-----------|-----------|
|-----------||------------|-9---------|-7---------|
|-5---------||-7-------7--|------9----|------7----|
|------5----||------7-----|-----------|-----------|


                                        To Coda
                                        To Coda
  H    Q  Q    H    H      H    Q  Q    H    H
|------------|-----------|------------|-----------|
|------7-----|-5---------|-3-------3--|-5---------|
|-5-------5--|------5----|------3-----|------5----|
|------------|-----------|------------|-----------|


                               Bridge
  1.            2.
  H    Q  Q      H    Q  Q      H    H      H    Q  Q    H    H
|-------------||------------||------------|------------|-----------|
|-5-------5--o||-5-------4--||o-5---------|-5-------5--|-----------|
|------5-----o||------5-----||o------5----|------5-----|-7---------|
|-------------||------------||------------|------------|------7----|


                         1.             2.
                                       D.S. al Coda
  H    H      H    H      H    Q  Q      H    Q  Q
|-----------|-----------|-------------||------------||
|-----------|-----------|---------4--o||---------4--||
|------7----|-3----3----|-5----7-----o||-5----7-----||
|-5---------|-----------|-------------||------------||


                Guitar Solo
  &
  Q  Q  Q  Q     H    H      H    Q  Q    H    H
|-------------||-----------|------------|-----------|
|-5--------4--||-5---------|-5-------4--|-5---------|
|----5--7-----||------5----|------5-----|------5----|
|-------------||-----------|------------|-----------|


  Q  Q  Q  Q    H    H      Q  Q  Q  Q    H    H
|-------------|-----------|-------------|-----------|
|-5--------4--|-5---------|-5--5--4-----|-----------|
|----5--7-----|------5----|----------7--|-5---------|
|-------------|-----------|-------------|------5----|


  H    Q  Q    H    Q  Q    H    Q  Q    H    Q  Q
|------------|------------|------------|------------|
|------------|------------|-9-------9--|-7-------7--|
|-5-------5--|-7-------7--|------9-----|------7-----|
|------5-----|------7-----|------------|------------|


  Q  Q  Q  Q    H    H      H    Q  Q    H    H
|-------------|-----------|------------|-----------|
|-------------|-5---------|-3-------3--|-5---------|
|-5--3--2-----|------5----|------3-----|------5----|
|----------5--|-----------|------------|-----------|


                 Bridge
  Q  Q  Q  Q      H    H      H    Q  Q    H    H
|-------------||------------|------------|-----------|
|-5--------4--||o-5---------|-5-------5--|-----------|
|----5--7-----||o------5----|------5-----|-7---------|
|-------------||------------|------------|------7----|


                         1.             2.
                                D.S.S. al Dbl. Coda
  H    H      H    H      H    Q  Q      H    Q  Q
|-----------|-----------|-------------||------------||
|-----------|-----------|---------4--o||---------4--||
|------7----|-3----3----|-5----7-----o||-5----7-----||
|-5---------|-----------|-------------||------------||


 Outro
  &&
  Q  Q  Q  Q    H    H      H    Q  Q    H    H
|-------------|-----------|------------|-----------|
|-5--------4--|-5---------|-5-------5--|-----------|
|----5--7-----|------5----|------5-----|-5---------|
|-------------|-----------|------------|------5----|


  H    Q  Q    H    H      H    Q  Q    W          +W
|------------|-----------|------------|----------|--------*|
|------------|-----------|------------|-5--------|-(5)----*|
|-5-------5--|-5---------|-5-------5--|----------|--------*|
|------5-----|------5----|------5-----|----------|--------*|
  development and support by
dmitry ivanov