rock
 
|tablatures   |lyrics   |discussion forums   |more tabs @ XGuitar.com

Beatles tabs

Hold Me Tight bass tab

beatles_hold_me_tight

TablEdited by Jan Bjorklund
Tuning : E A D G 	Time Signature: 4/4


|----------------|----------------|----------------|----------------|
|----------------|----------------|----------------|------0-3-3---0-|
|------0-3-3---0-|------0-3-3---0-|------0-3-3---0-|1-1-4-------4---|
|1-1-4-------4---|1-1-4-------4---|1-1-3-------4---|----------------|

|----------------|--------0-0-----|----------------|----------------|
|--------0-0-----|----1-2-----1-2-|----------------|------0-3-3---0-|
|----1-2-----1-2-|3-3-------------|------0-3-3---0-|1-1-4-------4---|
|3-3-------------|----------------|1-1-4-------4---|----------------|

|----------------|--------0-----|----------------|----------------|
|--------0-0-----|----1-2---1-2-|----------------|----------------|
|----1-2-----1-2-|3-3-----------|------0-3-3---0-|------0-3-3---0-|
|3-3-------------|--------------|1-1-4-------4---|1-1-4-------4---|

|----------------|----------------|----------------|----------------|
|------0-3-3---0-|--------3-3-----|------------3---|------------3---|
|1-1-4-------4---|1-1-3-4-----3-4-|3-3-3-3-3-3---3-|1-1-1-1-1-1---1-|
|----------------|----------------|----------------|----------------|

|----------------|----------------|----------------|----------------|
|----------------|----1-2---------|----------------|------0-3-3---0-|
|3-3-3-3-3-3-3-3-|3-3-----3-3-3-3-|------0-3-3---0-|1-1-4-------4---|
|----------------|----------------|1-1-3-------4---|----------------|

|----------------|--------0-----|----------------|----------------|
|--------0-0-----|----1-2---1-2-|----------------|------0-3-3---0-|
|----1-2-----1-2-|3-3-----------|------0-3-3---0-|1-1-4-------4---|
|3-3-------------|--------------|1-1-4-------4---|----------------|

|----------------|--------0-0-----|----------------|----------------|
|--------0-0-----|----1-2-----1-2-|----------------|----------------|
|----1-2-----1-2-|3-3-------------|------0-3-3---0-|------0-3-3---0-|
|3-3-------------|----------------|1-1-4-------4---|1-1-4-------4---|

|----------------|----------------|----------------|----------------|
|------0-3-3---0-|--------3-3-----|------------3---|------------3---|
|1-1-4-------4---|1-1-3-4-----3-4-|3-3-3-3-3-3---3-|1-1-1-1-1-1---1-|
|----------------|----------------|----------------|----------------|

|----------------|----------------|----------------|----------------|
|----------------|--------1-1-----|----------------|--------1-1-----|
|3-3-3-3-3-3-3-3-|----2-3-----2-3-|------0-3-3---0-|----2-3-----2-3-|
|----------------|4-4-------------|1-1-4-------4---|4-4-------------|

|----------------|----------------|----------------|----------------|
|----------------|0-0-------------|--------0-0-----|--------0-0-----|
|------0-3-3---0-|--------0-0-----|----1-2-----1-2-|----1-2-----1-2-|
|1-1-4-------4---|----1-2-----1-2-|3-3-------------|3-3-------------|

|----------------|----------------|----------------|----------------|
|----------------|----------------|------0-3-3---0-|--------0-0-----|
|3-3-3-3-3-3-3-3-|------0-3-3---0-|1-1-4-------4---|----1-2-----1-2-|
|----------------|1-1-4-------4---|----------------|3-3-------------|

|--------0-----|----------------|----------------|----------------|
|----1-2---1-2-|----------------|------0-3-3---0-|--------0-0-----|
|3-3-----------|------0-3-3---0-|1-1-4-------4---|----1-2-----1-2-|
|--------------|1-1-4-------4---|----------------|3-3-------------|

|--------0-0-----|----------------|----------------|----------------|
|----1-2-----1-2-|----------------|----------------|------0-3-3---0-|
|3-3-------------|------0-3-3---0-|------0-3-3---0-|1-1-4-------4---|
|----------------|1-1-4-------4---|1-1-4-------4---|----------------|

|----------------|----------------|----------------|----------------|
|--------3-3-----|------------3---|------------3---|----------------|
|1-1-3-4-----3-4-|3-3-3-3-3-3---3-|1-1-1-1-1-1---1-|3-3-3-3-3-3-3-3-|
|----------------|----------------|----------------|----------------|

|----------------|----------------|----------------|----------------|
|--------1-1-----|----------------|--------1-1-----|----------------|
|----2-3-----2-3-|------0-3-3---0-|----2-3-----2-3-|------0-3-3---0-|
|4-4-------------|1-1-4-------4---|4-4-------------|1-1-4-------4---|

|----------------|----------------|----------------|----------------|
|0-0-------------|--------0-0-----|--------0-0-----|----------------|
|--------0-0-----|----1-2-----1-2-|----1-2-----1-2-|3-3-3-3-3-3-3-3-|
|----1-2-----1-2-|3-3-------------|3-3-------------|----------------|

|----------------|----------------|----------------|--------0-----|
|----------------|------0-3-3---0-|--------0-0-----|----1-2---1-2-|
|------0-3-3---0-|1-1-4-------4---|----1-2-----1-2-|3-3-----------|
|1-1-4-------4---|----------------|3-3-------------|--------------|

|----------------|----------------|----------------|--------0-0-----|
|----------------|------0-3-3---0-|--------0-0-----|----1-2-----1-2-|
|------0-3-3---0-|1-1-4-------4---|----1-2-----1-2-|3-3-------------|
|1-1-4-------4---|----------------|3-3-------------|----------------|

|----------------|----------------|----------------|----------------|
|----------------|----------------|------0-3-3---0-|--------3-3-----|
|------0-3-3---0-|------0-3-3---0-|1-1-4-------4---|1-1-3-4-----3-4-|
|1-1-4-------4---|1-1-4-------4---|----------------|----------------|

|----------------|----------------|----------------|----------------|
|------------3---|------------3---|----------------|----------------|
|3-3-3-3-3-3---3-|1-1-1-1-1-1---1-|3-3-3-3-3-3-3-3-|----------------|
|----------------|----------------|----------------|4-4-4-4-4-4-2-2-|

|----------------|----------------|--||
|----------------|----------------|--||
|------0-3-3---0-|----------------|--||
|1-1-4-------4---|4-4-4-4-4-4-2-2-|1-||


Created with TablEdit http://www.tabledit.com/
  development and support by
dmitry ivanov