rock
 
|tablatures   |lyrics   |discussion forums   |more tabs @ XGuitar.com

Beatles tabs

Girl bass tab

Song: Girl (Lennon/McCartney)
Album: Rubber Soul
Author: The Beatles
Tabbed by Michael Jean (Tremulant)

Standard (EADG) Tuning

----------
Verse 0:00
----------

"Is there anybody..."

G|-----------------------|------------------------|
D|-------------5---------|--------------5---------|
A|---3-------------------|----3--------------3----|
E|-----------------------|------------------------|
     ^    ^    ^    ^         ^    ^    ^    ^

"All about the girl..."

G|-----------------------|------------------------|
D|---3--------------3----|--------------5---------|
A|-------------3---------|----6-------------------|
E|-----------------------|------------------------|
     ^    ^    ^    ^         ^    ^    ^    ^

"She's the kind of girl..."

G|-----------------------|------------------------|
D|-------------5---------|--------------5---------|
A|---3-------------------|----3-------------------|
E|-----------------------|------------------------|
     ^    ^    ^    ^         ^    ^    ^    ^

"Still you don't regret...."

G|-----------------------|------------------------|
D|---3-------------------|--------------5---------|
A|-------------3---------|----3-------------------|
E|-----------------------|------------------------|
     ^    ^    ^    ^         ^    ^    ^    ^



-----------
Chorus 0:21
-----------

"Ah, girl..."

G|-----------------------|------------------------|
D|-----------------------|------------------------|
A|---6---------5---------|----3---------1---------|
E|-----------------------|------------------------|
     ^    ^    ^    ^         ^    ^    ^    ^

"Girl (girl)..."

G|-----------------------|------------------------|
D|-----------------------|------------------------|
A|---6---------5---------|----3---------1---------|
E|-----------------------|------------------------|
     ^    ^    ^    ^         ^    ^    ^    ^



----------
Verse 0:31
----------

"When I think of all the times..."

G|-----------------------|------------------------|
D|-------------5---------|--------------5---------|
A|---3-------------------|----3--------------3----|
E|-----------------------|------------------------|
     ^    ^    ^    ^         ^    ^    ^    ^

"She will turn to me..."

G|-----------------------|------------------------|
D|---3-------------------|--------------5---------|
A|-------------3---------|----6-------------------|
E|-----------------------|------------------------|
     ^    ^    ^    ^         ^    ^    ^    ^

"And she promises the earth..."

G|-----------------------|------------------------|
D|-------------5---------|--------------5---------|
A|---3-------------------|----3-------------------|
E|-----------------------|------------------------|
     ^    ^    ^    ^         ^    ^    ^    ^

"After all this time..."

G|-----------------------|------------------------|
D|---3-------------------|--------------5---------|
A|-------------3---------|----3--------------3----|
E|-----------------------|------------------------|
     ^    ^    ^    ^         ^    ^    ^    ^



-----------
Chorus 0:51
-----------

"Ah, girl..."

G|-----------------------|------------------------|
D|-----------------------|------------------------|
A|---6---------5---------|----3---------1---------|
E|-----------------------|------------------------|
     ^    ^    ^    ^         ^    ^    ^    ^

"Girl (girl)..."

G|-----------------------|------------------------|
D|-----------------------|------------------------|
A|---6---------5---------|----3---------1---------|
E|-----------------------|------------------------|
     ^    ^    ^    ^         ^    ^    ^    ^



-----------
Bridge 1:01
-----------

"She's the kind of girl..."

G|-----------------------|------------------------|
D|---3----3----3----3----|------------------------|
A|-----------------------|----3----3----3----3----|
E|-----------------------|------------------------|
     ^    ^    ^    ^         ^    ^    ^    ^

"You feel a fool..."

G|-----------------------|------------------------|
D|---3----3----3----3----|------------------------|
A|-----------------------|----3----3----3----3----|
E|-----------------------|------------------------|
     ^    ^    ^    ^         ^    ^    ^    ^

"When you say she's looking good..."

G|-----------------------|------------------------|
D|---3----3----3----3----|------------------------|
A|-----------------------|----3----3----3----3----|
E|-----------------------|------------------------|
     ^    ^    ^    ^         ^    ^    ^    ^

"She's cool..."

G|-----------------------|------------------------|
D|---3----3----3----3----|----6----6----6----6----|
A|-----------------------|------------------------|
E|-----------------------|------------------------|
     ^    ^    ^    ^         ^    ^    ^    ^



-----------
Chorus 1:20
-----------

"Ah, girl..."

G|-----------------------|------------------------|
D|-----------------------|------------------------|
A|---6---------5---------|----3---------1---------|
E|-----------------------|------------------------|
     ^    ^    ^    ^         ^    ^    ^    ^

"Girl (girl)..."

G|-----------------------|------------------------|
D|-----------------------|------------------------|
A|---6---------5---------|----3---------1---------|
E|-----------------------|------------------------|
     ^    ^    ^    ^         ^    ^    ^    ^



-------------------------------
Verse (with guitar melody) 1:30
-------------------------------

"Was she told when she was young..."

G|-----------------------|------------3-5---------|
D|-------------5---------|-------------------5----|
A|---3-------------------|----3-------------------|
E|-----------------------|------------------------|
     ^    ^    ^    ^         ^    ^    ^    ^

"Did she understand..."

G|-----------------------|------------------------|
D|---3-------------------|--------------5---------|
A|-------------3---------|----6-------------------|
E|-----------------------|------------------------|
     ^    ^    ^    ^         ^    ^    ^    ^

"That a man must break his back..."

G|-----------------------|------------3-5---------|
D|-------------5---------|-------------------5----|
A|---3-------------------|----3-------------------|
E|-----------------------|------------------------|
     ^    ^    ^    ^         ^    ^    ^    ^

"Will she still believe..."

G|-----------------------|------------------------|
D|---3-------------------|--------------5---------|
A|-------------3---------|----3--------------3----|
E|-----------------------|------------------------|
     ^    ^    ^    ^         ^    ^    ^    ^



-----------
Chorus 1:51
-----------

"Ah, girl..."

G|-----------------------|------------------------|
D|-----------------------|------------------------|
A|---6---------5---------|----3---------1----3----|
E|-----------------------|------------------------|
     ^    ^    ^    ^         ^    ^    ^    ^

"Girl (girl)..."

G|-----------------------|------------------------|
D|-----------------------|------------------------|
A|---6---------5---------|----3---------1---------|
E|-----------------------|------------------------|
     ^    ^    ^    ^         ^    ^    ^    ^



-----------------------------------
Verse (guitar solo, no vocals) 2:00
-----------------------------------

G|-----------------------|------------------------|
D|-------------5---------|--------------5---------|
A|---3-------------------|----3-------------------|
E|-----------------------|------------------------|
     ^    ^    ^    ^         ^    ^    ^    ^

G|-----------------------|------------------------|
D|---3-------------------|--------------5---------|
A|-------------3---------|----6-------------------|
E|-----------------------|------------------------|
     ^    ^    ^    ^         ^    ^    ^    ^

G|-----------------------|------------------------|
D|-------------5---------|--------------5---------|
A|---3-------------------|----3-------------------|
E|-----------------------|------------------------|
     ^    ^    ^    ^         ^    ^    ^    ^

G|-----------------------|------------------------|
D|---3-------------------|--------------5---------|
A|-------------3---------|----3-------------------|
E|-----------------------|------------------------|
     ^    ^    ^    ^         ^    ^    ^    ^

After that, just fade out playing the chorus, and you're done.

This is my first tab, hope you guys enjoy it!
  development and support by
dmitry ivanov