rock
 
|tablatures   |lyrics   |discussion forums   |more tabs @ XGuitar.com

Beatles tabs

Flying bass tab

FLYING (Bassline)
                           As recorded by The Beatles
                   (From the 1967 Album MAGICAL MYSTERY TOUR)

Music by John Lennon, Paul McCartney, George Harrison & Richard Starkey
Transcribed by Paul A. Dechant

Gtr I (E A D G) - 'Bass'
Gtr II (E A D G B E) - 'Keyboard 1'
Gtr III (E A D G B E) - 'Keyboard 2'

  Q=93
  C
 4/4
  Gtr I
   Q.    E  +E   E  Q     Q.    E  +E   E  Q
|----------------------|----------------------|
|-10------------12-14--|-10------------12-14--|
|-------10-(10)--------|-------10-(10)--------|
|----------------------|----------------------|


   Q.    E  +E   E  Q     Q.    E  +E   E  Q
|----------------------|-----------------------|
|-10------------12-14--|-10------------12-14---|
|-------10-(10)--------|-------10-(10)---------|
|----------------------|-----------------------|


  F7
  Q.    E E  E  Q    Q.    E E  E  Q
|------------------|------------------|
|------12---10-----|------12---10-----|
|-8------------12--|-8------------12--|
|------------------|------------------|


  C
   Q.    E  +E   E  Q     Q.    E  +E   E  Q
|----------------------|----------------------|
|-10------------12-14--|-10------------12-14--|
|-------10-(10)--------|-------10-(10)--------|
|----------------------|----------------------|


  G7                     F
   E  E E  E  E  E  Q    E E E  E E  E E  E
|----------------------|--------------------|
|---------------12-----|-------12---10------|
|-10-10---10-10----10--|-8-8-------------12-|
|----------------------|--------------------|


  C
   E  E E  E E E E  E    E  E  E  E  Q   Q
|--------------9------|---------------------||
|-10-10------------10-|-10------------------||
|---------10----------|----10-10-10-10--10--||
|---------------------|---------------------||


| Gtr I
|  E   E E  E  +E   E  E  E    E   E E  E  +E   E  E  E
|---------------------------|---------------------------|
|-10--10-----------12-14----|-10--10---10-(10)----------|
|----------10-(10)-------10-|------------------10-10-10-|
|---------------------------|---------------------------|

|  E   E E  E  +E   E  E    E
|------------------------------|
|-10--10-----------12-14-------|
|----------10-(10)---------10--|
|------------------------------|


|  E   E E  E  +E   S  S  E E   E  E E  E  E   E E  E    E  E E E E  E  E  E
|-----------------------------|--------10-------------|-----------------------|
|-10--10---10-(10)------------|---------------12---10-|----------------10-12--|
|------------------10h12-10-7-|-8--8------------------|--8--8---8---12--------|
|-----------------------------|-----------------------|-----------------------|


|  E   E E  E  +E   E  Q
|-------------------------|
|-10--10-----------12-14--|
|----------10-(10)--------|
|-------------------------|

|  E   E E  E  +E   E  E  E    E   E E  E  +E   E  Q
|---------------------------|-------------------------|
|-10--10-----------12-14----|------------------12-12--|
|----------10-(10)-------12-|-10--10---10-(10)--------|
|---------------------------|-------------------------|

|  E   E E  E  +E   E  E E
|-10--10---10-(10)---------|
|------------------12-10-9-|
|--------------------------|
|--------------------------|

|  E   E E  E  +E   E  Q     E  E  E  E  E  E  E  E
|-------------------------|-------------------------||
|-10--10-----------12-14--|-------------------------||
|----------10-(10)--------|-10-10-10-10-10-10-10-10-||
|-------------------------|-------------------------||

|  E   E Q  E  E E  E    E   E Q  E  E E  E
|---------------------|---------------------|
|-10--10-----------10-|-10--10-----------10-|
|-------------10------|-------------10------|
|---------------------|---------------------|

|  E   E E  E  +E  Q    E    E   E E  E  +E  Q    E
|------------------9------|------------------9------|
|-10--10------------------|-10--10------------------|
|----------10-(10)-----10-|----------10-(10)-----10-|
|-------------------------|-------------------------|

|  E   E E  E E  E E  S  S    E   E E  E E  E  E  E
|-10--10---10--------------|-10--10---10------------|
|---------------12---10----|------------------10-12-|
|-----------------------12-|---------------12-------|
|--------------------------|------------------------|

|  E   E E  E  +E   E  E  E    E   E E  E  +E   E  Q
|---------------------------|--------------------------|
|-10--10-----------12-14----|-10--10-----------12-14---|
|----------10-(10)-------10-|----------10-(10)---------|
|---------------------------|--------------------------|

|  E   E E  E  +E  E  E  E    E   E E  E E  E  S  S  E
|--------------------------|-10--10---10---------------|
|------------------9-12-14-|---------------10-10h12-10-|
|-10--10---10-(10)---------|---------------------------|
|--------------------------|---------------------------|

|  E  E E  E  +E  E  E  E    W
|-----------------9-10----|-----------------------||
|-10-10---10-(10)------12-|-10--------------------||
|-------------------------|-----------------------||
|-------------------------|-----------------------||

|  W                   W                             W
|-------------------|-----------------------------|--------------------|
|-------------------|-----------------------------|--------------------|
|-------------------|-----------------------------|--------------------|
|-------------------|-----------------------------|--------------------|

|  W                W                    W
|----------------|--------------------|------------------------|
|----------------|--------------------|------------------------|
|----------------|--------------------|------------------------|
|----------------|--------------------|------------------------|


|  W                  W                           W
|------------------|---------------------------|---------------------------*|
|------------------|---------------------------|---------------------------*|
|------------------|---------------------------|---------------------------*|
|------------------|---------------------------|---------------------------*|
  development and support by
dmitry ivanov