rock
 
|tablatures   |lyrics   |discussion forums   |more tabs @ XGuitar.com

Beatles tabs

Everybody's Trying to be My Baby bass tab

EVERYBODY'S TRYING TO BE MY BABY (Bassline)
                           As recorded by The Beatles
                     (From the 1964 Album BEATLES FOR SALE)

Words and Music by Carl Lee Perkins
Arranged by The Beatles
Transcribed by Slowhand

Gtr I (E A D G) - 'Paul McCartney (Bass)'

 1st Verse
  Q=170(8=s8)
 4/4
  Gtr I
  W          H    E E Q    Q  Q  H      E E Q  Q  Q
|----------|-------------|------------|---------------|
|----------|-------------|------------|---------------|
|----------|--------7-7--|-7----------|---7-7--7------|
|----------|-------------|------------|---------------|


                            Chorus
  W          Q  Q  Q  Q      Q  Q  Q  Q    Q  Q  Q  Q
|----------|-------------||--------------|--------------|
|----------|----4--5--6--||o-7--7--------|-7--7-----7---|
|----------|-7-----------||o-------7--7--|-------7------|
|----------|-------------||--------------|--------------|


  Q  Q  Q  Q    Q  Q  Q  Q    Q  Q  Q  Q    Q  Q  Q  Q
|-------------|-------------|-4--4-----4--|-6--6---------|
|-------9--9--|-------------|-------4-----|--------------|
|-7--7--------|-7--5--4-----|-------------|-------7--7---|
|-------------|-------------|-------------|--------------|


                              2nd Verse
                              1.
  Q  Q  Q  Q    Q  Q  Q  Q     Q  Q  E E Q    Q  Q  E E Q
|-------------|-------------||--------------|---------------|
|----6--7--8--|-9--7--6-----||--------------|---------------|
|-7-----------|----------9--||-7-------7-7--|-7-------7-7---|
|-------------|-------------||--------------|---------------|


                              Guitar Solo 1
                              2.
  Q  H    Q    Q  Q  Q  Q      Q  Q  Q  Q    Q  Q  Q  Q
|------------|--------------||-9--9--7--7--|-6--6---------|
|------------|----4--5--6--o||-------------|-------9--9---|
|-7----------|-7-----------o||-------------|--------------|
|------------|--------------||-------------|--------------|


  Q  Q  Q  Q    Q  Q  Q  Q    Q  Q  Q  Q    Q  Q  Q  Q
|-9--7--6-----|-------------|----6--7--8--|-9--7--6------|
|----------9--|-7--6--------|-7-----------|----------9---|
|-------------|-------7--7--|-------------|--------------|
|-------------|-------------|-------------|--------------|


  Q  Q  Q  Q    Q  Q  Q  Q    Q  Q  Q  Q    Q  Q  Q  Q
|-------------|-------------|-------------|--------------|
|----6--7--8--|-9--7--6-----|-9-----------|-7------------|
|-7-----------|----------7--|----6--9--6--|----4--7--4---|
|-------------|-------------|-------------|--------------|


                              3rd & 4th Verses
                            $
  Q  Q  Q  Q    Q  Q  Q  Q     Q  Q  E E Q    Q  Q  E E Q
|-------------|-------------||--------------|---------------|
|----6--7--8--|-9--7--6-----||--------------|---------------|
|-7-----------|----------9--||-7-------7-7--|-7-------7-7---|
|-------------|-------------||--------------|---------------|


                              Chorus
  E H    Q  E   Q  Q  Q  Q     Q  Q  Q  Q    Q  Q  Q  Q
|-------------|-------------||-------------|--------------|
|-------------|----4--5--6--||-7--7--------|-7--7-----7---|
|-7-----------|-7-----------||-------7--7--|-------7------|
|-------------|-------------||-------------|--------------|


  Q  Q  Q  Q    Q  Q  Q  Q    Q  Q  Q  Q    Q  Q  Q  Q
|-------------|-------------|-4--4-----4--|-6--6---------|
|-------9--9--|-------------|-------4-----|--------------|
|-7--7--------|-7--5--4-----|-------------|-------7--7---|
|-------------|-------------|-------------|--------------|


                              Guitar Solo 2
      To Coda
  Q  Q  Q  Q    Q  Q  Q  Q     Q  Q  Q  Q    Q  Q  Q  Q
|-------------|----6--7--8--||-9--7--------|--------------|
|----6--7--8--|-9-----------||-------9--6--|--------------|
|-7-----------|-------------||-------------|-7--5--4------|
|-------------|-------------||-------------|----------7---|


  Q  Q  Q  Q    Q  Q  Q  Q    Q  Q  Q  Q    Q  Q  Q  Q
|-------------|-------------|-------------|--------------|
|-------------|-6--6-----6--|-7-----------|--------------|
|-------5-----|-------7-----|----4--5--6--|-7--5--4------|
|-7--7-----7--|-------------|-------------|----------7---|


  Q  Q  Q  Q    Q  Q  Q  Q    Q  Q  Q  Q    Q  Q  Q  Q
|-------4--4--|-------------|-------------|--------------|
|----6--------|-------------|-------4-----|--------------|
|-7-----------|-7--5--------|----6-----6--|----4--5--6---|
|-------------|-------7--7--|-7-----------|-5------------|


  Q  Q  Q  Q    Q  Q  Q  Q     Q  Q  Q  Q    Q  Q  Q  Q
|-------------|-------------||-------------|--------------|
|----6--7--8--|-9--9--9--9--||-------------|--------------|
|-7-----------|-------------||-7--7--5--5--|-4--4---------|
|-------------|-------------||-------------|-------7--7---|


  Q  Q  Q  Q    Q  Q  Q  Q    Q  Q  Q  Q    Q  Q  Q  Q
|-------------|-------------|-------------|--------------|
|-------------|-------------|-------------|--------------|
|-7--7--5--5--|-4--4--------|----4--5--6--|-7--5--4------|
|-------------|-------7--7--|-5-----------|----------7---|


  Q  Q  Q  Q    Q  Q  Q  Q    Q  Q  Q  Q    Q  Q  Q  Q
|-------------|-------------|-------------|--------------|
|-------------|-------------|-------4-----|--------------|
|----5--------|-5--5--5--4--|----6-----6--|----4--5--6---|
|-7-----7--7--|-------------|-7-----------|-5------------|


                                             5th Verse
               D.S. al Coda &
  Q  Q  Q  Q    Q  Q  Q  Q     Q  Q  Q  Q     Q  Q  E E Q    Q  Q  E E Q
|-------------|-------7-----||-------------||--------------|---------------|
|----6--7--8--|-9--9-----9--||-9--7--6-----||--------------|---------------|
|-7-----------|-------------||----------9--||-7-------7-7--|-7-------7-7---|
|-------------|-------------||-------------||--------------|---------------|


                             Chorus
  Q  H    Q    Q  Q  Q  Q     Q  Q  Q  Q    Q  Q  Q  Q
|------------|-------------||-------------|--------------|
|------------|----4--5--6--||-7--7-----5--|-7--7-----7---|
|-7----------|-7-----------||-------7-----|-------7------|
|------------|-------------||-------------|--------------|


  Q  Q  Q  Q    Q  Q  Q  Q    Q  Q  Q  Q    Q  Q  Q  Q
|-------------|-------------|-------------|--------------||
|-------9-----|-------9-----|-9--9-----9--|-7--7-----7---||
|-7--7-----5--|-7--7-----7--|-------9-----|-------7------||
|-------------|-------------|-------------|--------------||


 Outro
  E Q.   Q  Q    E E E E Q  Q    +W           +Q   E E +Q   Q    +W
|--------------|---------------|------------|------------------|--------*|
|---6----7--8--|-9-9-6---------|------------|------------------|--------*|
|-7------------|-------7----7--|-(7)--------|-(7)-----------7--|-(7)----*|
|--------------|---------------|------------|------0-0-(0)-----|--------*|
  development and support by
dmitry ivanov