rock
 
|tablatures   |lyrics   |discussion forums   |more tabs @ XGuitar.com

Beatles tabs

Everybody's Got Something To Hide Except For Me And My Monkey bass tab

Song: Everybody's Got Something To Hide Except For Me And My Monkey
Artist: Beatles
Album: White Album
Tabbed By: Kenny Borders (Spankielnc@aol.com)

Verse "Come on, come on!"
G------------------|
D------------------|
A-7/-----------5-7-|
E----0-4-5-6-7-----|

Pre-Chorus/Chorus
G-----------------------------------------------------------|
D-----------------------------------------------------------|
A-----------------------------------------------------------|
E-5-5-5-5-5-5-5-5-5/10-10-10-10-10-10-10-10/7-7-7-7-7-7-7-7-|

G-------------------------------------|
D-9-7---------------------------------|
A-----9-7/----------------------------|
E-----------0---3----/12/---0---10----|

Solo
G-----------------------------------------------------------|
D-----------------------------------------------------------|
A---------------------------------------4h5-5-5-5-4h5-5-5-5-|
E-12/--------0-/-12-12-0-0-0-4--4-5-6-7---------------------|

Riff 1 (till end)
  development and support by
dmitry ivanov