rock
 
|tablatures   |lyrics   |discussion forums   |more tabs @ XGuitar.com

Beatles tabs

Eleanor Rigby bass tab

Intro

G 5-----------
D -----2-----0
A -------------
E -------------

Verse (?) (play 3 times)

G -----0------------0------------0-------5-5---5-----5-5---5 \\
D 2-2---2-----2-2---2-----2-2---2----------2-----------2----  \\
A ----------------------------------------------------------  /   x2
E ---------------------------------------------------------- /

G ------\\
D 2—2—2  \\
A ------ /  x7
E ------/

Ending 1+2

G -----
D 2—2—2
A -----
E -----

Ending 3

G –4-0-------
D 2-----4---0
A ------------
E ------------
  development and support by
dmitry ivanov