rock
 
|tablatures   |lyrics   |discussion forums   |more tabs @ XGuitar.com

Beatles tabs

Drive My Car bass tab

Drive My Car
By: the Beatles

/: slide

|----|
|-4/-|
|-/4-|
|----|

Intro:
|-----5-7-----------|
|-5/7---------------|
|---------5---------|
|-------------------|

Verse:
|----------------------------|
|-----7----------------------|
|-5/9---9/7-5--------5-------|x3
|-------------3---37---7/5-3-|

|------------------------------|
|------------------------------|
|-----------------------7-9/7---|
|-5--5-5-5--5-5-5--5--9------9-|

Chorus:
|------------------------------|	|-----------------------------|
|------------------------------|	|-----------------------------|
|------------------------------| x2 |-----------------------------|
|-7--7--7--7-5-3--3--3--3-5----|	|-7--7--7--7--0-2-4-0-5-3-2-0-|

Fill #1
|------------------------------|
|------------------------------|
|-5--5----5-------------7------|
|------57---7-3-5--5-5/9---9-5-|

Fill #2
|-----------------------|
|-----------------------|
|-5--5--5-5-5--5--------|
|-----------------------|

Guitar solo:
|---------------------------------|		|---------------------------|
|----------7----------------------|		|---------------------------|
|-5--5-5/9---7/75-------------75--| x3	|---------------------7-97--|
|-----------------3--3-3-7/10---7-|		|-5--5-5-5--5-5-5"5/9-----9-|

Fill #3
|-----------------------|
|-----------------------|
|-5--5------------------|
|-------3-3--3-5--------|

Outro:
|---------------------------------2------------------------|
|-------------------------------4--------------------------|
|-5--5------2----------------5----------2-5-----4-4-7-7-7--|
|-------3-3---3-5--5--5-5--5--------3-3-----5-5------------|
Song order:
Intro
Verse
Chorus
Fill #1
Verse
Chorus
Fill #2
Guitar solo
Verse
Chorus
Fill #3
Outro: repeat and fade
  development and support by
dmitry ivanov