rock
 
|tablatures   |lyrics   |discussion forums   |more tabs @ XGuitar.com

Beatles tabs

Dont Pass Me By bass tab

beatles/don't_pass_me_by.btab

Basstab by Jan Bjorklund, Finland;
jani_bjorklund@yahoo.se
You are welcome to request for basstabs!
Bienvenidos a pedirme transcripciones para el bajo!
Fingering and positions as suggested by TablEdit.


TablEdited by Jan Bjorklund
Tuning : E A D G 	Time Signature: 2/4

 |       |        |       |        |       |        |       |
|5-5-------------|5---------------|5---------------|5---------------|
|----------------|--------5-------|--------5-------|--------5-------|
|----------------|----------------|----------------|----------------|
|----------------|----------------|----------------|----------------|

 |       |        |       |        |       |        |       |
|5---------------|5---------------|5---5-----------|5---------------|
|--------5-------|--------5-------|--------5-------|--------5-------|
|----------------|----------------|----------------|----------------|
|----------------|----------------|----------------|----------------|

 |       |        |       |        |       |        |       |
|5---------------|----------------|----------------|----------------|
|--------5---5---|3---------------|3---------------|3---------------|
|----------------|--------3-------|--------3-------|--------3-------|
|----------------|----------------|----------------|----------------|

 |       |        |       |        |       |        |       |
|----------------|----------------|----------------|----------------|
|3-------2---3---|5---------------|5---------------|5---------------|
|----------------|--------5-------|--------5-------|--------5-------|
|----------------|----------------|----------------|----------------|

 |       |        |       |        |       |        |       |
|----------------|----------------|----------------|----------------|
|5---------------|3---------------|3---------------|3---3---3---5---|
|--------5-------|--------3-------|--------3-------|----------------|
|----------------|----------------|----------------|----------------|

 |       |        |       |        |       |        |       |
|5---------------|5---------------|5---------------|5---------------|
|--------5-------|--------5-------|--------5-------|--------5-------|
|----------------|----------------|----------------|----------------|
|----------------|----------------|----------------|----------------|

 |       |        |       |        |       |        |       |
|----------------|5---------------|----------------|----------------|
|5-------5-------|--------5-------|---and so on...............------|
|----------------|----------------|----------------|----------------|
|----------------|----------------|----------------|----------------|

Transcribe! 5.2 transcription http://www.seventhstring.demon.co.uk/
Created with TablEdit http://www.tabledit.com/
  development and support by
dmitry ivanov